Blink 182

Whats My Age Again.....correct Bass Tabs



More from Blink 182

Blink 182 Tabs
Blink 182 Chords
Blink 182 Bass
Blink 182 Lyrics




i'm tired of finding bad tabs so i went out and bought the blink
182 bass tabs book....here is whats my again straight from the
book....



verse verse\pre chorus
G|---------------------------------||---------------------------------------------||
D|---------------------------------||---------------------------------------------||
A|-2-2-2-2---------4-4-4-4-6-6-6-6-||-2-2-2-2---------4-4-4-4-4-4-2-2-2-2-2-2-2-2-||
E|---------2-2-2-2-----------------||---------2-2-2-2-----------------------------||

chorus
G|---------------------||----------------------------------------------||
D|---------------------||----------------------------------------------||
A|----4-4-6-6---2222---||----4-4-66666666-44444444-2-------------------||
E|-2-------------------||-2--------------------------------------------||

outro outro
G|-------------------------------------------------------------------------------||
D|-------------------------------------------------------------------------------||
A|----4-4-6-6---2222---| <play over |----4-4-66666666-44444444-2----------||
E|-2-------------------| and over |-2-----------------------------------||



Get this song at amazon.com      Ebay     Ringtones Ringtones  


Learn to play: Songwriting, Piano, Harmonica, Guitar
More Blink 182 lyrics available at Muzikum

Related Blink 182 Bass Tabs

Natives bass
The Rock Show bass
Toast And Bananas bass
Anthem bass
I'm Lost Without You bass
Even If She Falls bass
Romeo And Rebecca bass
Wendy Clear bass
Man Overboard bass
What\'s My Age Again bass
Feeling This bass
Carousel bass
Obvious bass
Carosel bass
Pathetic Live bass
Feels So Good bass
Verse For Cacophony bass
Apple Shampoo bass
The Fallen Interlude bass
Let Her Go bass


Guitar Tabs









All tabs are property and copyright of their owners. All tabs provided for educational purposes only. Privacy Policy, DMCA