Blink 182

What\'s My Age Again Bass Tabs



More from Blink 182

Blink 182 Tabs
Blink 182 Chords
Blink 182 Bass
Blink 182 Lyrics




Intro/Verse:

G|--------|--------|--------|--------|
D|--------|--------|--------|--------|
A|2-2-2-2-|--------|4-4-4-4-|6-6-6-6-|
E|--------|2-2-2-2-|--------|--------|

Chorus:

G|-----------|------------|
D|-----------|------------|
A|--44-66-22-|---44-66-44-|
E|2----------|2-----------|

Interlude:

G|--------|--------|
D|--------|--------|
A|2---4---|6---4---|
E|--------|--------|

One of my first tabs. Use a Fast, short, and constant stroke.
Plz send feedback. Thanx!



Get this song at amazon.com      Ebay     Ringtones Ringtones  


Learn to play: Songwriting, Piano, Harmonica, Guitar
Also available at Muzikum: Blink 182 - What's My Age Again lyrics

Related Blink 182 Bass Tabs

After Midnight Live bass
Voyeur bass
Waggy bass
Damnit W/intro bass
Pathetic bass
13 Miles bass
Degenerate bass
Stay Together For The Kids bass
Dumpweed bass
Zulu bass
The Country Song bass
Family Next Door bass
Adams Song bass
Mothers Day bass
American Pie Theme Song bass
My Pet Sally bass
M And Ms bass
1st Date bass
Reebok Commercial bass
Another Girl Another Planet bass


Guitar Tabs









All tabs are property and copyright of their owners. All tabs provided for educational purposes only. Privacy Policy, DMCA