Blink 182

This Is Home Bass Tabs



More from Blink 182

Blink 182 Tabs
Blink 182 Chords
Blink 182 Bass
Blink 182 Lyrics

INTRO

G |------------------------------------------------------|
D |------------------------------------------------------|
A |---0-------5----0---------5---9---7-------------------|
E |-------2--------------2-------------------------------|

VERSE

G |--------------------------------------------------|
D |--------------------------------------------------|
A |----0------5------0------5------------------------|
E |--------------------------------------------------|

CHORUS

G |----------------------------------------------------|
D |----------------------------------------------------|
A |---5---0---9---2------5--0---7----------------------|
E |----------------------------------------------------|

BRIDGE

G |--------------------------------------------------|
D |------12------11------9-----7---------------------|
A |-12-------9--------7-----5------------------------|
E |--------------------------------------------------|
Get this song at amazon.com      Ebay     Ringtones Ringtones  


Learn to play: Songwriting, Piano, Harmonica, Guitar
More Blink 182 lyrics available at Muzikum

Related Blink 182 Bass Tabs

Fuck A Dog bass
All The Small Things bass
Dammit bass
Dicklips bass
Anthem bass
Always bass
Reckless Abandon bass
Transvestite bass
I Miss You Right Way bass
Wishing Well bass
Fallen Interlude bass
Girl Next Door bass
Don't Leave Me (power Chord Way If You Get Bored) bass
Life's So Boring (instrumental) bass
Lemmings bass
Longest Line bass
M And Ms bass
Carousel Live bass
The Rock Show (easy) bass
Another Girl Another Planet bass


Guitar Tabs









All tabs are property and copyright of their owners. All tabs provided for educational purposes only. Privacy Policy, DMCA