Blink 182

Mother's Day Tabs



More from Blink 182

Blink 182 Tabs
Blink 182 Chords
Blink 182 Bass
Blink 182 Lyrics




Funny, Easy Song From Blink. Enjoy!


Fuckin, Suckin, And Touchin

e|------------------|------------------|------------------|------------------=
b|------------------|------------------|------------------|------------------=
g|------------------|------------------|------------------|------------------=+++++=+++(3times)
d|---2---( 9 times)---|-5---(4 Times)-----|-4------3-------|--------------=
a|---2------------- |-5----------------|-4------3----------|------------------=
e|------------------|-3----------------|-2------1--------|----------------=

It\'s Mother\'s Day!!!!!!!!!!!!!!!!! (Exact Strumming
Not Included. Listen To The Song. It\'s easy, trust me.)

e|----3--------------|------3-----------|---3-------------|---3---------------=
b|----3--------------|------3-----------|---3-------------|---3---------------=
g|-------------------|------------------|-----------------|------------------=}
d|----2--------------|------2-----------|-----------------|--------------=|
a|----2--------------|------3-----------|---2-------------|------------------=
e|-------------------|------------------|---3-------------|----------------=


Those are the chords. Enjoy!



Get this song at amazon.com      Ebay     Ringtones Ringtones  


Learn to play: Songwriting, Piano, Harmonica, Guitar
Also available at Muzikum: Blink 182 - Mother's Day lyrics

Related Blink 182 Tabs

Action Live tabs
Marlboro Man tabs
Seasons In The Sun tabs
Life Is So Boring tabs
Take Off Your Pants And Jacket (album) tabs
Shit Piss tabs
The Longest Line Solo tabs
A New Hope Intro tabs
Dont Leave Me (acoustic) tabs
Point Of View (Live) tabs
Feeling This Live tabs
Not Now tabs
Tv tabs
First Date (live) tabs
The Party Song tabs
Dicklips tabs
Touchdown Boy tabs
The Family Next Door tabs
Rock Show (live) tabs
Always1 tabs


Guitar Tabs









All tabs are property and copyright of their owners. All tabs provided for educational purposes only. Privacy Policy, DMCA

Online converter - videoconverter.com