Blink 182

I'm Lost Without You Bass Tabs



More from Blink 182

Blink 182 Tabs
Blink 182 Chords
Blink 182 Bass
Blink 182 Lyrics



Im Lost Without You
By: Blink 182

Intro - 0:36
G|------------------------------------------------------|
D|------------------------------------------------------|
A|------------------------------------------------------|
E|7/1414141414141414121212121212121255555555/77777777/|

Intro (continued)
G|----------------------------------------------|
D|----------------------------------------------|
A|----------------------------------------------|
E|/1414141414141414121212121212121255555555-0~|

Verse - 1:01
G|--------------------------------------------------|
D|--------------------------------------------------|
A|-4-0-4-0-----------------4-0-4-0------------------| play 3 times
E|---------00h--44-44-444-5----------00h-77-77-777-5| (hold note on
fourth time)

Chorus - 1:28
G|---------------------------------------------------|
D|---------------------------------------------------|
A|---------------------------------------------------|play 4 times
E|1414141414141414-1212121212121212-55555555-77777777|(hold note on
fourth time)

Verse - 2:10
G|--------------------------------------------------|
D|--------------------------------------------------|
A|-4-0-4-0-----------------4-0-4-0------------------| play 9 times
E|---------00h--44-44-444-5----------00h-77-77-777-5| (hold note on
fourth time)

Bridge - 2:59
G|--------------------------|
D|--------------------------|
A|--------------------------|
E|-5~-4~-2~-0~-5~-7~-9~-10~-|
(im pretty sure this might be a piano playing
so if you don have one handy here are the notes)

Verse
G|--------------------------------------------------|
D|--------------------------------------------------|
A|-4-0-4-0-----------------4-0-4-0------------------| play until drum
A|-4-0-4-0-----------------4-0-4-0------------------| solo
E|---------00h--44-44-444-5----------00h-77-77-777-5|

Taken from the BassMasta ~ http://www.tabs-database.com



Get this song at amazon.com      Ebay     Ringtones Ringtones  


Learn to play: Songwriting, Piano, Harmonica, Guitar
Also available at Muzikum: Blink 182 - I'm lost without you lyrics

Related Blink 182 Bass Tabs

Whats My Age Again bass
MH 4.18.2011 bass
Anthem bass
Easy Target 100% bass
Girl Next Door bass
Everytime I Look For You bass
I Know A Guy bass
1st Date bass
Carousel Budha bass
All Of This bass
The Rock Show (easy) bass
The Longest Line bass
I Miss You (new Complete Version) bass
Up All Night bass
Penetrated bass
Man Overboard bass
Online Song bass
G O bass
Staytoghetherforthekids-noobsver bass
Dammit bass


Guitar Tabs









All tabs are property and copyright of their owners. All tabs provided for educational purposes only. Privacy Policy, DMCA