Blink 182

Even If She Falls Bass Tabs



More from Blink 182

Blink 182 Tabs
Blink 182 Chords
Blink 182 Bass
Blink 182 Lyrics

INTRO

G |----------------------------------------------------|
D |----------------------------------------------------|
A |-------------5---4----------------------------------|
E |----2---3-------------------------------------------|

VERSE

G |-------------------------------------------------|
D |-------------------------------------------------|
A |-----5-------------------------------------------|
E |----------3---7---5------------------------------|

CHORUS

G |--------------------------------------------------|
D |--------------------------------------------------|
A |-----5---0---2---0--------------------------------|
E |--------------------------------------------------|

SECOND CHORUS - 3RD TIME THROUGH

G |--------------------------------------------------|
D |--------------------------------------------------|
A |----5--7---9---10---------------------------------|
E |--------------------------------------------------|

BRIDGE

G |------------------------------------------------------|
D |------------------------------------------------------|
A |-----5-------------------5---7---9---10---------------|
E |---------0---2--3-------------------------------------|
Get this song at amazon.com      Ebay     Ringtones Ringtones  


Learn to play: Songwriting, Piano, Harmonica, Guitar
More Blink 182 lyrics available at Muzikum

Related Blink 182 Bass Tabs

Ben Wah Balls bass
Im Lost Without You bass
1st Date bass
Kaleidoscope bass
Enthused bass
M+ms bass
Action bass
Take Off Your Pants And Jacket (album) bass
Anthem bass
Point Of View bass
Peggy Sue Live bass
The Party Song bass
Carousel Buddha bass
MH 4.18.2011 bass
The Whole 'blink 182' Album bass
Apple Shampoo bass
The anthem pt2 bass
Touchdown Boy bass
Sometimes bass
Take Off Your Pants And Jacket - Bass Tab bass


Guitar Tabs









All tabs are property and copyright of their owners. All tabs provided for educational purposes only. Privacy Policy, DMCA