Blink 182

Don\'t Leave Me Tabs



More from Blink 182

Blink 182 Tabs
Blink 182 Chords
Blink 182 Bass
Blink 182 Lyrics

X= muted

palm mute single notes





----------------------------------------------------------------------------------------

----------------------------------------------------------------------------------------

----------2---2-2-2-----------7---7-7-7-----------4---4-4-4-7--7-7--7-7--9--9-9--9-9----

----------2---2-2-2-----------7---7-7-7-----------4---4-4-4-7--7-7--7-7--9--9-9--9-9----

-0-0-0-0--0---0-0-0--0-0-0-0--5---5-5-5--5-5-5-5--2---2-2-2-5--5-5--5-5--7--7-7--7-7----

----------------------------------------------------------------------------------------





----------------------------------------------------------------------------------------

----------------------------------------------------------------------------------------

----------2---2-2-2-----------7---7-7-7-----------4---4-4-4-7--7-7--7-7--9--9-9--9-9----

----------2---2-2-2-----------7---7-7-7-----------4---4-4-4-7--7-7--7-7--9--9-9--9-9----

-7-7-7-7--0---0-0-0--0-0-0-0--5---5-5-5--5-5-5-5--2---2-2-2-5--5-5--5-5--7--7-7--7-7----

----------------------------------------------------------------------------------------





----------------------------------------------------------------------------------------

----------------------------------------------------------------------------------------

-2-~----------------------2--2-2--2-2-4--4-4--4-4-7--7-7--7-7-9--9-9--9-9---------------

-2-~----------------------2--2-2--2-2-4--4-4--4-4-7--7-7--7-7-9--9-9--9-9---------------

-0-~-------7-7-7-7-7-7-7--0--0-0--0-0-2--2-2--2-2-5--5-5--5-5-7--7-7--7-7---------------

----------------------------------------------------------------------------------------





-----------------------------------------------------------------------------------------------------

-----------------------------------------------------------------------------------------------------

-2--2-2--2-2-4--4-4--4-4-7--7-7--7-7-9---------------2--2-2--2-2-4--4-4--4-4-7--7-7--7-7-9--9-9--9-9-

-2--2-2--2-2-4--4-4--4-4-7--7-7--7-7-9---------------2--2-2--2-2-4--4-4--4-4-7--7-7--7-7-9--9-9--9-9-

-0--0-0--0-0-2--2-2--2-2-5--5-5--5-5-7--7-7-7-7-7-7--0--0-0--0-0-2--2-2--2-2-5--5-5--5-5-7--7-7--7-7-

-----------------------------------------------------------------------------------------------------





---------------------------------------------------------------------------------------

---------------------------------------------------10-~--------------------------------

-2--2-2--2-2-4--4-4--4-4-7--7-7--7-7--7-7-7-7--7-7--9-~--------------------------------

-2--2-2--2-2-4--4-4--4-4-7--7-7--7-7--7-7-7-7--7-7--7-~--------------------------------

-0--0-0--0-0-2--2-2--2-2-5--5-5--5-5--5-5-5-5--5-5--0-~--------------------------------

---------------------------------------------------------------------------------------





--------------------------------------------------------------------------------------

-------10--------------10--------------10--------------10-----------------------------

-------x---------------x---------------x---------------x------------------------------

-7--7--7--7-7-7--7--7--7--7-7-7--7--7--7--7-7-7--7--7--7------------------------------

-0--0-----0-0-0--0--0-----0-0-0--0--0-----0-0-0--0--0---------------------------------

--------------------------------------------------------------------------------------





--------------------------------------------------------------------------------------

-------10--------------10--------------10--------------10-----------------------------

-------x---------------x---------------x---------------x------------------------------

-7--7--7--7-7-7--7--7--7--7-7-7--7--7--7--7-7-7--7--7--7------------------------------

-0--0-----0-0-0--0--0-----0-0-0--0--0-----0-0-0--0--0-----5-5-5-5-5-5-5-5-------------

--------------------------------------------------------------------------------------





Get this song at amazon.com      Ebay     Ringtones Ringtones  


Learn to play: Songwriting, Piano, Harmonica, Guitar
Also available at Muzikum: Blink 182 - Don't Leave Me lyrics

Related Blink 182 Tabs

Alone tabs
Cereal tabs
What Went Wrong Clarinet Solo tabs
Wrecked Him tabs
Aliens Exist (live) tabs
The Longest Line tabs
Dont Leave Me tabs
Asthenia-live tabs
Dont Tell Me That Its Over tabs
Im Sorry tabs
First Day tabs
Always1 tabs
Stockholm Syndrome tabs
21 Days3 tabs
Wasting Time tabs
M&ms tabs
The Rock Show tabs
Stay Together For The Kids (Solo) tabs
A New Hope Intro tabs
Party Song tabs


Guitar Tabs









All tabs are property and copyright of their owners. All tabs provided for educational purposes only. Privacy Policy, DMCA