Blink 182

Damnit W/intro Bass Tabs



More from Blink 182

Blink 182 Tabs
Blink 182 Chords
Blink 182 Bass
Blink 182 Lyrics



Guitar Intro...fun to play along with..play fast
G-------------------------------------------------------
D-----0-0-2-------0-0-2-------0-0-2-------2-2-0---------
A-3-3---------------------0-0---------------------------
E-------------3-3---------------------1-1---------------

Intro(x2)
G----------------------------------------
D----------------------------------------
A---333333------------000000-------------
E------------333333------------111111----

Verse(x4)
G-----------------------------------------------
D-----------------------------------------------
A---33333333--------------00000000--------------
E--------------33333333--------------11111111---

Repeat intro(2x)
then verse(x4)

Chorus(x2)
G------------------------------------------------------------
D------------------------------------------------------------
A---3-3-3333333-----------------0-0-0000000------------------
E-----------------3-3-3333333------------------1-1-1111111---

Repeat intro(2x)
then verse(x4)
then the chorus(x2)

BREAK (x2)
G--------------------------------
D--------------------------------
A---3~------5~------7~-----8~----
E--------------------------------

repeat intro once more(x4)



Get this song at amazon.com      Ebay     Ringtones Ringtones  


Learn to play: Songwriting, Piano, Harmonica, Guitar
More Blink 182 lyrics available at Muzikum

Related Blink 182 Bass Tabs

Dude Ranch Full Album - Bass Tab bass
Ben Wah Balls bass
Family Next Door bass
Mutt bass
Dysentary Gary bass
Not Now bass
M + Ms 1000% bass
First Date W/ Lyrics bass
A Letter To Elise bass
13 Miles bass
Another Girl Another Planet bass
Feeling This bass
The Country Song bass
Untitled bass
Verse For Cacophony bass
Dancing With Myself bass
Cacophony bass
Wirecked Him bass
Reebok Commercial bass
Dumpweed live bass


Guitar Tabs









All tabs are property and copyright of their owners. All tabs provided for educational purposes only. Privacy Policy, DMCA