Blink 182

Dammit(done Right) Tabs



More from Blink 182

Blink 182 Tabs
Blink 182 Chords
Blink 182 Bass
Blink 182 Lyrics




Dammit by blink-182

"X" indicates plam muting



INTRO
E|----------------------------------------|
B|----------------------------------------|
G|----------------------------------------|
D|-----0-0-2-----0-0-2-----0-0-2-----2-2-0| X4
A|-3-3-----------------0-0----------------|
E|-----------3-3-----------------1-1------|


VERSE 1
E|----------------------------------------|
B|----------------------------------------|
G|5-5555----------------------------------|
D|5-5555-5-5555-7-7777-3-3333-------------| X2
A|3-3333-5-5555-7-5555-3-3333-------------|
E|-------3-3333-5-5555-1-1111-------------|
XXXX XXXX XXXX XXXX


vERSE 2
E|----------------------------------------|
B|----------------------------------------|
G|55555-----------------------------------|
D|55555-55555-77777-33333-----------------| X2
A|33333-55555-77777-33333-----------------|
E|------33333-55555-11111-----------------|


intro
E|----------------------------------------|
B|----------------------------------------|
G|----------------------------------------|
D|-----0-0-2-----0-0-2-----0-0-2-----2-2-0| X2
A|-3-3-----------------0-0----------------|
E|-----------3-3-----------------1-1------|


VERSE 1
E|----------------------------------------|
B|----------------------------------------|
G|5-5555----------------------------------|
D|5-5555-5-5555-7-7777-3-3333-------------| X2
A|3-3333-5-5555-7-5555-3-3333-------------|
E|-------3-3333-5-5555-1-1111-------------|
XXXX XXXX XXXX XXXX


vERSE 2
E|----------------------------------------|
B|----------------------------------------|
G|55555-----------------------------------|
D|55555-55555-77777-33333-----------------| X2
A|33333-55555-77777-33333-----------------|
E|------33333-55555-11111-----------------|


CHORUS
E|----------------------------------------|
B|----------------------------------------|
G|55555555--------------------------------|
D|55555555-55555555-77777777-33333333-----| X2
A|33333333-55555555-77777777-33333333-----|
E|---------33333333-55555555-11111111-----|


intro
E|----------------------------------------|
B|----------------------------------------|
G|----------------------------------------|
D|-----0-0-2-----0-0-2-----0-0-2-----2-2-0| X2
A|-3-3-----------------0-0----------------|
E|-----------3-3-----------------1-1------|


VERSE 1
E|----------------------------------------|
B|----------------------------------------|
G|5-5555----------------------------------|
D|5-5555-5-5555-7-7777-3-3333-------------| X2
A|3-3333-5-5555-7-5555-3-3333-------------|
E|-------3-3333-5-5555-1-1111-------------|
XXXX XXXX XXXX XXXX


vERSE 2
E|----------------------------------------|
B|----------------------------------------|
G|55555-----------------------------------|
D|55555-55555-77777-33333-----------------| X2
A|33333-55555-77777-33333-----------------|
E|------33333-55555-11111-----------------|


CHORUS
E|----------------------------------------|
B|----------------------------------------|
G|55555555--------------------------------|
D|55555555-55555555-77777777-33333333-----| X2
A|33333333-55555555-77777777-33333333-----|
E|---------33333333-55555555-11111111-----|


INTERLUDE
E|0--------0----0--------0-----0----------|
B|--1----3---1----1----3---1-3---1--------|
G|----0-------------0---------------------|
D|----------------------------------------| X2
A|----------------------------------------|
E|----------------------------------------|

OUTRO
E|----------------------------------------|
B|----------------------------------------|
G|----------------------------------------|
D|-----0-0-2-----0-0-2-----0-0-2-----2-2-0| X4
A|-3-3-----------------0-0----------------|
E|-----------3-3-----------------1-1------|

and if you can memorize the what everything is then you just have
to remember this order

intro---x4
verse 1-x2
verse 2-x2
intro---x2
verse 1-x2
verse 2-x2
chorus--x2
intro---x2
verse 1-x2
verse 2-x2
chorus--x2
interlude-x2
outro---x4

And now something I think you should know.

Tom Delonge (guitar in this song) instead of playing a "0" on
the D string in the outro and intro he plays a "5" on the "A" string.

A "D"-0 is the same note as an "A"-5, just different tones.

The outro is the intro



Get this song at amazon.com      Ebay     Ringtones Ringtones  


Learn to play: Songwriting, Piano, Harmonica, Guitar
More Blink 182 lyrics available at Muzikum

Related Blink 182 Tabs

Online Songs Solo tabs
Dicklips (live) tabs
Angellica And Me tabs
Reckless Abandon Solo tabs
Girl Next Door, The tabs
No It Isn't(plus-44) tabs
Phantom Of The Opera tabs
Please Take Me Home tabs
Reebok Commercial tabs
Wasting Time tabs
Adoms Song tabs
Greatest Hits Bass tabs
Grandpa Intro tabs
Every Time I Look For You tabs
Toast And Bananas tabs
Touchdown Boy Intro-easy tabs
When You F*cked Grandpa (easy For Beinners) tabs
Heres Your Letter tabs
Happy Holidays You Bastard tabs
B J tabs


Guitar Tabs









All tabs are property and copyright of their owners. All tabs provided for educational purposes only. Privacy Policy, DMCA