Metallica

For Whom The Bell Tolls(day At The Green '86) Bass Tabs



More from Metallica

Metallica Tabs
Metallica Chords
Metallica Bass
Metallica Lyrics




G--19-18-17-16-19p16-------19------------19-18-17-16--16h19------16h19-----|
D--------------------17-16----------------------------------0h19-------0h19|
A----------------------------17-16-----------------------------------------|
E---------------------------------17/0-------------------------------------|

G-16h19------19^19^-----19-18-17-16--19p16-------19-----------|
D-------0h19-------------------------------17-16--------------|
A---------------------------------------------------17-16-----|
E---------------------------------------------------------17/0|

G-19-18-17-16--19p16-------19---------------19-18-17-16-------19^19^19|
D--------------------17-16------------------------------17-16---------|
A-----------------------------17-16-----------------------------------|
E------------------------------------17/0-----------------------------|
pretty much repeat that

then its mostly the same as the record

G----------------------------------|----------------------------------|
D----------------------------------|----------------------------------|
A----------------------------------|-------------------------------2--|
E-0-3-2-1-0-3-2-1-0-3-2-1-0-0-2-3/5|-3-2-1-0-3-2-1-0-3-2-1-0-0-2-3----|

G----------------------------------|-------------------------------------|
D----------------------------------|-------------------------------------|
A----------------------------------|-------------------------------------|
E--0-0-0-3--0-0-0-5--0-0-0-3--0-6-2|--0-0-0-3--0-0-0-5--0-0-0-3--0-6-2-1-|


G----------------------------------------------------------|-------------------|-----|
D----------------------------------------------------------|-------------------|-0H2-|
A----------------------------------------------------------|-------------------|-----|
E----0--------------------------------------3--------------|-------------12-5--|-----|


G----------------|-----|
D----------------|-0H2-|
A---3-----0------|-----|
E----------------|-----|


G---------------------------------------------------------------------------------------|
D\--------------------------------------------------------------------------------------|
A----------------------------------------------------------------------------------2-/14|
E-0------------------------------0-0-------3--3-3-3-3--3-3-3-3--0----|-3-3-3-3-0--------|




G------------------------|
D------------------------|
A---2--------------/14---|
E------------------------|


G---------------------------|
D*-------------------------*|
A*-------------------------*|
E-0----2-2--0----2-2--3-3---|



Get this song at amazon.com      Ebay     Ringtones Ringtones  


Learn to play: Songwriting, Piano, Harmonica, Guitar
More Metallica lyrics available at Muzikum

Related Metallica Bass Tabs

King Of Nothing bass
Devils Dance bass
Trapped Under Ice bass
"the Unforgiven" Intro (perfect) bass
Orion (bass Solos) bass
One bass
And Justice For All bass
Invisible Kid bass
Purify bass
Master Of Puppets (album) bass
Cliff Burtons Last Show (and Justice For All) bass
Minus Human bass
Welcome Home/ Sanitarium bass
Mexico City Bass Solo bass
Loverman bass
From Whom The Bells bass
Tuesdays Gone bass
Tuesday's Gone bass
Bass Solo Seattle 1989 bass
Shoot me again bass


Guitar Tabs









All tabs are property and copyright of their owners. All tabs provided for educational purposes only. Privacy Policy, DMCA