Metallica

Metallica - The Star Spangled Banner guitar tab

The Star Spangled Banner

written by Francis Scott Key

as performed live by Metallica

tab by John Flaherty; Blind2345@aol.com

***This can be moved anywhere on the neck. I usually play it higher than

this, but it can be moved up and down the neck as well as up and down

strings. The & sign will show the root of the piece (in other words, this

piece is written in C, but if you needed it in A you'd move everything down

3 frets. FiL***

------------------------------------------------------------------------------

------------------------------------------------------------------------------

----------------9-7------------------9-7--------------------------------------

-------------10-----10-------------------10-9-7-9-10-10-----------------------

-10-7---7-10-----------7-9-10--10-10--------------------10-7---10-7---7-10----

------8------------------------------------------------------8------8---------

&

root

------------------------------------------------------------------------------

------------------------------------------------------------8-8---------------

----97------------------9-7------------------------9-9-9-10-----10-9-7-9-10---

-10----10-------------------10-9-7-9-10-10------------------------------------

----------7-9-10--10-10--------------------10-7-------------------------------

------------------------------------------------8-----------------------------

------------------------------------------------------------------------------

------------------------------------------------------------------------------

-10--10-9-7--------------------------------------------7-10-9-7---------------

------------10-9-10-7-9-10------------10-10-10-9-7-7-7----------10-10-9-------

---------------------------7-9-10--10-----------------------------------10----

------------------------------------------------------------------------------

------------------------------------------------------------------------------

--------------8---------------------------------------------------------------

-------7-9-10---10-7-9-10-7---------------------------------------------------

----10----------------------10------------------------------------------------

-10---------------------------------------------------------------------------

------------------------------------------------------------------------------

Get this song at:  amazon.com sheetmusicplus.com

Share your thoughts

0 Comments found