Misc Unsigned Bands

Misc Unsigned Bands - Vaginal Incest - I Vomit Cuntslime guitar tab

http://www.vaginalincest.com/new

band: vaginal incest

song: I vomit cuntslime

tabber: John Cukras

email: riffreaper@yahoo.com

tuning: normal

riff 1: Part A Part B

E---------------------------|------------------|

B---------------------------|------------------|

G---------------------------|------------------|

D-4-555-------44------------|--4-555-3-44------|

A-2-333-3-2-1-22------------|--2-333-1-22------|

E----------------0000 x's 5-|-------------0000-|

pm .... ....

Riff 1: Part A x's 2

Riff 1: Part B x's 8

Pause

Riff 1: Part A x's 8

Riff 2:

E------------------------------------------------|

B------------------------------------------------|

G------------------------------------------------|

D-4----4-----4----5-------5--44-5--44-3-4--4-----|

A-2--1-2-----2--2-3--3-4~-3--44-3--44-3-2--2--4~-|

E---------00-------------------------------------|

pm ..

Riff 3:

E--------------------------------------------------------------------|

B--------------------------------------------------------------------|

G--------------------------------------------------------------------|

D------------------------------------------------------------------4-|

A------------------------------------------------------------------2-|

E-222222-333-111-22222-333-111-222222-333-111-22222-444-333 x's 2----|

Get this song at:  amazon.com sheetmusicplus.com

Share your thoughts

0 Comments found