Misc Unsigned Bands

Misc Unsigned Bands - The Drennan Bragg Experience- Roller Coaster guitar tab

Intro - Guitar 1

|------------------------------------|

|-10-------10-----10-9-------9-------|

|----7---7----7--------7---7---7---7-|

|------7--------7--------7-------7---|

|------------------------------------|

|------------------------------------|

Intro - Guitar 2

|------------------------------------------------------------------------------------------------------|

|------------------------------------------------------------------------------------------------------|

|------------------------------------------------------------------------------------------------------|

|------------------------------------------------------------------------------------------------------|

|-0-0-0---0-0-0---0-0-0-1--0-0-0---0-0-0---0-0-0-1--0-0-0--0---0-0-0---0-0-0-1--0-0-0---0-0-0---0-0-0-1|

|-0-0-0---0-0-0---0-0-0-1--0-0-0---0-0-0---0-0-0-1--0-0-0--0---0-0-0---0-0-0-1--0-0-0---0-0-0---0-0-0-1|

PM- - - - - - - - - - - - - - - - - - - - - - - - - - - - - - - - - - - -

Guitar 2 - Those are ones

|----------------------------------|

|----------------------------------|

|----------------------------------|

|----------------------------------|

|-000-0-0-0-0-000-000-0-0-11111111-|

|-000-0-0-0-0-000-000-0-0-11111111-|

PM--- - - - - --- --- - - --------

|---------------------------------------------------|

|-/10----8/10--1110-8-8/10----8/10-1110--8--4-4/6-|

|---------------------------------------------------|

|-/-7----5/-7---87--5-5/-7----5/-7--8-7--5--1-1/3-|

|---------------------------------------------------|

|---------------------------------------------------|

|---------------------|

|---------------------|

|---------------------|

|---------------------|

|-0--0-0-0-0--0-0-0-0-|

|-0--0-0-0-0--0-0-0-0-|

PM- - - - - - - - -

Verse

|----------------------------------|

|----------------------------------|

|----------------------------------|

|----------------------------------|

|-0-3-0-5-6-7--0--0-0-0-0--0-0-0-0-|

|-0-3-0-5-6-7--0--0-0-0-0--0-0-0-0-|

PM - - - - - - - -

|-------------------------------------------|---------------------|

|-------------------------------------------|---------------------|

|-9-9-9-11-11-11-8-8-8-10-10-10-7-7-7-9-9-9-|-9/11-14-1411/13----|

|-------------------------------------------|---------------------|

|-7-7-7--9--9--9-6-6-6--8--8--8-5-5-5-7-7-7-|-7/-9-12-12-9/11----|

|-------------------------------------------|---------------------|

|----------------------------------------|

|----------------------------------------|

|----------------------------------------|

|----------------------------------------|

|-3--3-0-0-0---0-0-1-0-0-3--0-0-5--0-6/7-|

|-3--3-0-0-0---0-0-1-0-0-3--0-0-5--0-6/7-|

PM - - - - - - - - - - -

|--------------------------------|

|--------------------------------|

|--------------------------------|

|--------------------------------|

|-3--3-0-0-0---0-0-1-0-3-/-5-6/7-|

|-3--3-0-0-0---0-0-1-0-3-/-5-6/7-|

PM - - - - - - -

|-----------------|

|-----------------|

|-----------------|

|-----------------|

|-000-0-0-0-0-000-|

|-000-0-0-0-0-000-|

PM--- - - - - ---

Pre-chorus

|--------------------------------------------------------------------------------------------|

|-11-10--8-8/10--106----11-10--8-8/10--106----11-10--8-8/10--10/13----11-10--8-8/10--1013-|

|--------------------------------------------------------------------------------------------|

|--8--7--5-5/-7---73-----8--7--5-5/-7---73-----8--7--5-5/-7---7/10-----8--7--5-5/-7---710-|

|--------------------------------------------------------------------------------------------|

|--------------------------------------------------------------------------------------------|

Chorus

|---------------------------------10--------------------|------|

|-7h8p7-8-10~--8-7-8-6-8-10~--8-7----8-7-5-7-8-7--------|------|

|------------------------------------------------8h9-7~-|------|

|-------------------------------------------------------|-0----|

|-------------------------------------------------------|-0----|

|-------------------------------------------------------|-0----|

|-------------------------------|

|-------------------------------|

|-------------------------------|

|-------------------------------|

|-0-5-3-0-2-3-2-7-6-0-5-3-0-3-1-|

|-0-5-3-0-2-3-2-7-6-0-5-3-0-3-1-|

PM- - - - - - - - - - - - - - -

just play it really fast and it'll sound just like me

Get this song at:  amazon.com

Share your thoughts

0 Comments found