Misc Unsigned Bands

Misc Unsigned Bands - Single Stroke 7 - All Over guitar tab

Band:Single Stroke 7

Song:All Over

Tabber:Mike Delaney

This is my bands song, not like that first one that was i was just messin around

this one is gonna be on our demo when we finish it!!

Intro:PM the 7's on the fifth string

e|-----------------------------------------------------------------|

B|-----------------------------------------------------------------|

G|-----------------------------------------------------------------|

D|---------9-7-6---------9-7-6-------9-7-6-------9-7-6-7-6-7-6-----|

A|----7-7------------7-7---------7-7---------7-7-------------------|

E|-----------------------------------------------------------------|

Pause for a count then comes the verse

Verse:

e|----------------------------------------------------------------|

B|----------------------------------------------------------------|

G|----------------------------------------------------------------|

D|--5-------------------------------------------------------------|

A|--3--5-5-5-5-5-5-5-5--7-7-7-7-7-7-7-7--3-3-3-3-3-3-3-3----------|

E|-----3-3-3-3-3-3-3-3--5-5-5-5-5-5-5-5--1-1-1-1-1-1-1-1----------|

Chorus:Pick slide into this~ then at the end of the chorus do 10 dead strikes

E|----------------------------------------xxxxxxxxxxx-----------------------|

B|----------------------------------------xxxxxxxxxxx-----------------------|

G|----------------------------------------xxxxxxxxxxx-----------------------|

D|--1010--5-5--7-7--9-9-------------------xxxxxxxxxxx-----------------------|

A|--8-8---3-3--5-5--7-7----x4-------------xxxxxxxxxxx-----------------------|

E|----------------------------------------xxxxxxxxxxx-----------------------|

Then play the verse again then chorus then play the bridge which is

just the chorus but clean then PM then 5th fret on the 6th string and

then play the intro again then another chorus followed by another chorus

enjoy this tab i worked hard on this song.......

If u want more of my abdns tabs E mail me!

GibSonGuitariSt3@aol.com

Get this song at:  amazon.com

Share your thoughts

0 Comments found