Misc Unsigned Bands

Misc Unsigned Bands - Regret Comes Last - If God Didnt Exist It Would Be Necessary To Create Him guitar tab

If God didn't Exist, It Would Be Necessary to Create Him

By:Regret Comes Last

Album:The First Blast of the Drumset Against the Monstrous Regiment of Women

This is in Standard Tuning...

Intro:

Guitar1: then Guitar2:

|-----------------------------| |-------------|

|-----------------------------| |-------------|

|-------------4/6-4/6-6/4-4/6-| |-------------|

|-44-44-44-44-6/8-6/8-8/6-6/8-| |-88-88-88-88-|

|-44-44-44-44-----------------| |-88-88-88-88-|

|-22-22-22-22-----------------| |-66-66-66-66-|

.. .. .. .. .. .. .. ..

then:

Guitar2:

|-----------------------------|

|-----------------------------|

|-------------4/6-4/6-6/4-4/6-|

|-44-44-44-44-6/8-6/8-8/6-6/8-|

|-44-44-44-44-----------------|

|-22-22-22-22-----------------|

.. .. .. ..

Guitar1:

|-------------------------------------|

|-7-5-4-7-5-0-4-5-7------9p6h8--------|

|------------------6h8--------7-6-4-0-|

|---------------------5h7-------------|

|-------------------------------------|

|-------------------------------------|

Repeat all those above twice...

Verse:[faith and misbelief...]

Guitar2:(uhmm.. those are 11s, not 1s.. you strum the 11s 8 times..)

(the 10s are 10s, and not 1 then 0.. strum them 8 times too...)

|-------------------------------------|

|-------------------------------------|

|-------------------88888888-10101010-|

|-99999999-11111111-88888888-10101010-| x2

|-99999999-11111111-66666666-88888888-|

|-77777777-99999999-------------------|

........ ........ ........ ........

Guitar1:

|-------------------------7-7-7-7----------|

|-7-7-7-7-7-7-7-7-8-8-8-8---------9-9-9-9--|

|--5-5-5-5-6-6-6-6-6-6-6-6-6-6-6-6-7-7-7-7-|

|------------------------------------------| x2

|------------------------------------------|

|------------------------------------------|

Mini-solo:(those are 10s, ot 1 and 0s..)

|---------------------------------------------------------------------10~-|

|-976976976976-960960960960-1097109710971097-870870870870-640640640640----|

|-------------------------------------------------------------------------|

|-------------------------------------------------------------------------|

|-------------------------------------------------------------------------|

|-------------------------------------------------------------------------|

Pre-Chorus:[Im not the only one...]

Guitar1:

|------------------------------------------------|

|------------------------------------------------|

|-7p0h6p0h4p0---------5-7p0h6p0h4p0--------10h12-|

|------------5h7-8h9-7-------------6h7-9h11------| x2

|------------------------------------------------|

|------------------------------------------------|

Guitar2:

|--------------------------------------------|

|--------------------------------------------|

|---5h7--8p6---------------------------------|

|-00---00---00-9h11h12h13p12p10p9h10-00-1-3/-| x2

|-00---00---00-----------------------00-1-3/-|

|-00---00---00-----------------------00-1-3/-|

Chorus:[open your eyes...]

Guitar2:

|---------------------------------------------|

|---------------------------------------------|

|-88888888------------------------------------|

|-88888888-99999999-1111111111111111-99999999-| x2

|-66666666-99999999-1111111111111111-99999999-|

|----------77777777-9-9-9-9-9-9-9-9--77777777-|

........ ........ . . . . . . . . ........

Guitar1:

|-8-5-8-5--7-5-5-5-8-5-0-6-0-6-0-6-|

|----------------------------------|

|----------------------------------|

|----------------------------------| x8

|----------------------------------|

|----------------------------------|

Verse:[rubbish paradox of...]

Guitar2:(again.. those are 11s, not 1s.. you strum the 11s 8 times..)

(the 10s are 10s, and not 1 then 0.. strum them 8 times too...)

|-------------------------------------|

|-------------------------------------|

|-------------------88888888-10101010-|

|-99999999-11111111-88888888-10101010-| x2

|-99999999-11111111-66666666-88888888-|

|-77777777-99999999-------------------|

........ ........ ........ ........

Guitar1:

|-------------------------7-7-7-7----------|

|-7-7-7-7-7-7-7-7-8-8-8-8---------9-9-9-9--|

|--5-5-5-5-6-6-6-6-6-6-6-6-6-6-6-6-7-7-7-7-|

|------------------------------------------| x2

|------------------------------------------|

|------------------------------------------|

Pre-Chorus:[Im not the only one...]

Guitar1:

|------------------------------------------------|

|------------------------------------------------|

|-7p0h6p0h4p0---------5-7p0h6p0h4p0--------10h12-|

|------------5h7-8h9-7-------------6h7-9h11------| x2

|------------------------------------------------|

|------------------------------------------------|

Guitar2:

|--------------------------------------------|

|--------------------------------------------|

|---5h7--8p6---------------------------------|

|-00---00---00-9h11h12h13p12p10p9h10-00-1-3/-| x2

|-00---00---00-----------------------00-1-3/-|

|-00---00---00-----------------------00-1-3/-|

Chorus:[open your eyes...]

Guitar2:

|---------------------------------------------|

|---------------------------------------------|

|-88888888------------------------------------|

|-88888888-99999999-1111111111111111-99999999-| x2

|-66666666-99999999-1111111111111111-99999999-|

|----------77777777-9-9-9-9-9-9-9-9--77777777-|

........ ........ . . . . . . . . ........

Guitar1:

|-8-5-8-5--7-5-5-5-8-5-0-6-0-6-0-6-|

|----------------------------------|

|----------------------------------|

|----------------------------------| x8

|----------------------------------|

|----------------------------------|

Bridge:

Guitar1:

|--------------------------------------------------------|

|--------------------------------------------------------|

|-9---7---9-------------9-11-11-11---8-8-----------8-----|

|-7--7-----8-12----8---8--9----9--------7-7---0-6-6-7----| x2

|-5-5--5-5---10---7---7---7-------7-5------5-5-0-----5-5-|

|------------10-10--10-----------------------------------|

then this part:

Guitar1:

|--------------------------------------------------------|

|--------------------------------------------------------|

|-9---7---9-------------9-11-11-11---8-8-----------8-----|

|-7--7-----8-12----8---8--9----9--------7-7---0-6-6-7----| x2

|-5-5--5-5---10---7---7---7-------7-5------5-5-0-----5-5-|

|------------10-10--10-----------------------------------|

Guitar2:

|-------------------------------------------------------------|

|-------------------------------------------------------------|

|-------------------------------------------------------------|

|-00-------------44-------------55-------------99-------------| x4

|-00-5h7h9p8p7p0-44-5h7h9p8p7p0-55-5h7h9p8p7p0-99-5h7h9p8p7p0-|

|-00-------------44-------------55-------------99-------------|

then:

|-----------------------------|

|-----------------------------|

|--------8-8-----------8------|

|-7-7-9-9---7-7---0-6-6-7-----|

|--------------5-5-0-----5-5~-|

|-----------------------------|

Chorus:[open your eyes...]

Guitar2:

|---------------------------------------------|

|---------------------------------------------|

|-88888888------------------------------------|

|-88888888-99999999-1111111111111111-99999999-| x4

|-66666666-99999999-1111111111111111-99999999-|

|----------77777777-9-9-9-9-9-9-9-9--77777777-|

........ ........ . . . . . . . . ........

Guitar1:

|-8-5-8-5--7-5-5-5-8-5-0-6-0-6-0-6-|

|----------------------------------|

|----------------------------------|

|----------------------------------| x16

|----------------------------------|

|----------------------------------|

That's aLL...

Hope it's correct...

Added by tabs-database.com and our distinguished partners

Get this song at:  amazon.com

Share your thoughts

0 Comments found