Misc Unsigned Bands

Misc Unsigned Bands - Naked Muffin - Polyester Earth guitar tab

Polyester Earth, the first song we ever made! Were an awesome band, come to our shows!

Intro:

E|------------------------------------------------------------------------|

B|------------------------------------------------------------------------|

D|------------------------------------------------------------------------|

G|------------------------------------------------------------------------|

A|------------------------------------------------------------------------|

E|---0-0-12(2x)-0-0-9(2x)-0-0-12(2x)-0-0-9(2x)-0-0-5-0-7(2x)--------------|2x

Verse:

E|------------------------------------------------------------------------|

B|------------------------------------------------------------------------|

D|------------------------------------------------------------------------|

G|------------------------------------------------------------------------|

A|------------------------------------------------------------------------|

E|---0-0-12-12-12-12-9-9-9-9-5-5-5-5-7-7-7-7------------------------------|

Chorus:

Chorus:

E|------------------------------------------------------------------------|

B|------------------------------------------------------------------------|

D|------------------------------------------------------------------------|

G|---12--12-12-12-12-9--9-9-9-9-5--5-5-5-5-7--7-9-7-7---------------------|

A|---12--12-12-12-12-9--9-9-9-9-5--5-5-5-5-7--7-9-7-7---------------------|

E|---12--12-12-12-12-9--9-9-9-9-5--5-5-5-5-7--7-9-7-7---------------------|

Get this song at:  amazon.com

Share your thoughts

0 Comments found