Misc Unsigned Bands

Misc Unsigned Bands - Midtone Voyd - Angerman Bass guitar tab

A GREAT song by the new band 'MIDTONE VOYD' really simple but really cool.

INTRO

G------------------------------------|

D------3---0-----------0---------3---|

A--0-3---3---3-1-3-333---3-1-0-3---3-|

E------------------------------------|

VERSE

G------------------------------------|

D------3---0-----------0---------3---|

A--0-3---3---3-1-3-333---3-1-0-3---3-|

E------------------------------------|

CHORUS

G----------------------------------------------|

D--0000----------------0000--------------3---0-|

A-------3333-111-3-333------3333-111-0-3---3---|

E----------------------------------------------|

It's way easy, you can pik it up in like 2 mins.

you can see more of this band on PUREVOLUME.COMAdded by tabs-database.com and our distinguished partners

Get this song at:  amazon.com sheetmusicplus.com

Share your thoughts

0 Comments found