Misc Unsigned Bands

Misc Unsigned Bands - Kool Shades - Danger Sign guitar tab

Tab: Danger Sign

Band: Kool Shades

Album: Live! From The Sun

Tabbed By: TheReverend724

This is the intro/verse for Danger Sign by Kool Shades

Please comment if you see mistakes or if its good

E----5---------4--4-----4----4------3----------------1------|

B-3-----6--3---3-----6-----3-----3-----3------3--3-----3----|

G-2------------4-----------------3--------3---3----3-----3--|

D-0------------0-----------------5------------3-------------|

A-0-------------------------------------------1-------------|

E---------------------------------------------3-------------|

E----6---6--6--6-8-6-----------------------------|

B-8--8---6--6--6-----6-8-6--6--6-6----5----------|

G-8--8---6--6--6-----6------7--7-7----6----------|

D-8--8---------------8------8--8-8-0--7-----7----|

A---------------------------8--8-8-0--7--0-----7-|

E------------------------------------------------|

E----5---------4--4-----4----4------3----------------1------|

B-3-----6--3---3-----6-----3-----3-----3------3--3-----3----|

G-2------------4-----------------3--------3---3----3-----3--|

D-0------------0-----------------5------------3-------------|

A-0-------------------------------------------1-------------|

E---------------------------------------------3-------------|

E----6----6--4-6------6---------------5--------|

B-8--8------------6/8----6--6-6----5-----5-----|

G-8--8-------------------7--7-7----6--------6--|

D-8--8-------------------8--8-8-0--7-----------|

A------------------------8--8-8-0--7-----------|

E----------------------------------------------|

Added by tabs-database.com and our distinguished partners

Get this song at:  amazon.com sheetmusicplus.com

Share your thoughts

0 Comments found