Misc Unsigned Bands

Misc Unsigned Bands - Go Betty Go - C'mon guitar tab

please rate and check this tab

h= hammer on

.= palm mute

p= pull off

intro

e----------------------------------------------------------------------------------------

A----------------------------------------------------------------------------------------

D----------------------------------------------------------------------------------------

G-------------8-6-5-----------1h2-1h2----------8-6-5----------1h2-1h2--------------------

B-----7-7-7---------2-2-2-2-------------4-4-4---------2-2-2-2----------------------------

E----------------------------------------------------------------------------------------

verse

e----------------------------------------------------------------------------------------

A----------------------------------------------------------------------------------------

D----------------------------------------------------------------------------------------

G---222222222222--444444444444----666666666666---222222--444444--------------------------

B---000000000000--222222222222----444444444444---000000--222222--------------------------

E----------------------------------------------------------------------------------------

.......... ...... . . ........... .. . .. .

chorus

e----------------------------------------------------------------------------------------

A----------------------------------------------------------------------------------------

D----------------------------------------------------------------------------------------

G---222222222222--444444444444----666666666666---222222--444444--------------------------

B---000000000000--222222222222----444444444444---000000--222222--------------------------

E----------------------------------------------------------------------------------------

interlude1

e----------------------------------------------------------------------------------------

A----------------------------------------------------------------------------------------

D----------------------------------------------------------------------------------------

G---6~----4~----2~------6~------4~------2~-----------------------------------------------

B---4~----2~----0~------4~------2~------0~-----------------------------------------------

E----------------------------------------------------------------------------------------

e----------------------------------------------------------------------------------------

A----------------------------------------------------------------------------------------

D----------------------------------------------------------------------------------------

G----666666-444444--222222222222--444444444444---222222222222----------------------------

B----444444-222222--000000000000--222222222222---000000000000----------------------------

E----------------------------------------------------------------------------------------

solo

e----------------------------------------------------------------------------------------

A----------------------------------------------------------------------------------------

D----------------------------------------------------------------------------------------

G------------66-77-99----------1-1-2-1---------------44-55-77------2----2----44-2-1------

B---66666666----------22222222---------4-2--44444444------------00---00----22-------4-3--

E----------------------------------------------------------------------------------------

bridge

e------------------------------------------------------------------------------5p0-------

A----------------------------------------------------------------------------------------

D----------------------------------------------------------------------------------------

G--2~------------------------------------------------------------------------------------

B--0~------------------------------------------------------------------------------------

E----------------------------------------------------------------------------------------

interlude2

e----------------------------------------------------------------------------------------

A----------------------------------------------------------------------------------------

D----------------------------------------------------------------------------------------

G---2~------------4~---------------6~-------------2~------4~-----------------------------

B---0~------------2~---------------4~-------------0~------2~-----------------------------

E----------------------------------------------------------------------------------------

bridge2

e----------------------------------------------------------------------------------------

A----------------------------------------------------------------------------------------

D----------------------------------------------------------------------------------------

G---2~------------4~---------------6~-------------222222-444444--------------------------

B---0~------------2~---------------4~-------------000000-222222--------------------------

E----------------------------------------------------------------------------------------

outro

e----4-4-4-2-4-4h5-4---------------------------------------------------------------------

A----------------------------------------------------------------------------------------

D----------------------------------------------------------------------------------------

G----------------------------------------------------------------------------------------

B----------------------------------------------------------------------------------------

E----------------------------------------------------------------------------------------

intro x1

verse x1

chorus x1

verse x1

chorus x2

interlude1 x1

solo x2

bridge x1

interlude2 x1

bridge2 x1

chorus x2

interlude2 x2

outro x14

Get this song at:  amazon.com

Share your thoughts

0 Comments found