Misc Unsigned Bands

Misc Unsigned Bands - Cunt Wipes - Pizza Fart Bass guitar tab

----------------------------------------------------------------------------

PIZZA FART - Cunt Wipes

----------------------------------------------------------------------------

Tabbed By :Dream_Disorder

e-mail:

Tuning:E A D G

A few friends of mine are in a band called "Cunt Wipes." They played their first song

me and I recorded it, tabbed it and played it.

G|-------------------------------------------------------------------------|

D|-------------------------------------------------------------------------|

A|-33-3-77-7----------3-2--------------------------------------------------|

E|-----------55-5-33-------------------------------------------------------|

Play that however many times.

Then play this twice.

G|-------------------------------------------------------------------------|

D|-------------------------------------------------------------------------|

A|-88-8-33-3------5-3-2----------------------------------------------------|

E|-----------33-3-------3--------------------------------------------------|

Then just do whatever you want from there.

Added by tabs-database.com and our distinguished partners

Get this song at:  amazon.com

Share your thoughts

0 Comments found