Misc Unsigned Bands

Misc Unsigned Bands - Cornucopia - Atf guitar tab

ATF

Cornucopia

Josh

Guitar

|--3--|

E E E S E S E E S S S E E E S E S E S S S S

E||------------------------------------|-----------------------------|

B||------------------------------------|-----------------------------|

G||------------------------------------|-----------------------------|

D||------------------------------------|-----------------------------|

A||------------------------------------|--3--3--3--3-----------------|

D||--0------0--0--0-0--0-0--0--0h-3h-5-|-------------3--3-3--3-3-3-3-|

|--3--|

E E E S E S E E S S S E E E S E S E S S S S

--------------------------------|-----------------------------|

--------------------------------|-----------------------------|

--------------------------------|-----------------------------|

--------------------------------|-----------------------------|

--------------------------------|--3--3--3--3-----------------|

--0--0--0--0-0--0-0--0--0h-3h-5-|-------------3--3-3--3-3-3-3-|

|--3--|

E E E S E S E E S S S E E E S E S E S S S S

|---------------------------------|------------------------------||

|---------------------------------|------------------------------||

|*--------------------------------|-----------------------------*||

|*--------------------------------|-----------------------------*||

|---------------------------------|--3--3--3--3------------------||

|---0--0--0--0-0--0-0--0--0h-3h-5-|-------------3--3-3--3-3-3-3--||

|--3--|

E E E S E S E S S S S E E E S E S E E S S S

-----------------------------||---------------------------------|

-----------------------------||---------------------------------|

-----------------------------||*--------------------------------|

-----------------------------||*--0--0--0--0-0--0-0--0--0--3--5-|

--3--3--3--3-----------------||---0--0--0--0-0--0-0--0--0h-3h-5-|

-------------3--3-3--3-3-3-3-||---0--0--0--0-0--0-0--0--0h-3h-5-|

|--3--|

E E E S E S E S S S S E E E S E S E E S S S

------------------------------||---------------------------------|

------------------------------||---------------------------------|

--5--5--5--5-----------------*||*--------------------------------|

--5--5--5--5-3--3-3--3-3-3-3-*||*--------------------------------|

--3--3--3--3-3--3-3--3-3-3-3--||---------------------------------|

-------------3--3-3--3-3-3-3--||---0--0--0--0-0--0-0--0--0h-3h-5-|

E E E S E S E S S S S S S S S S S S S S S E S S S S

------------------------------||------------------------------------|

------------------------------||------------------------------------|

-----------------------------*||------------------------------------|

-----------------------------*||--0-12-10-0-10-8-0-7-8-0-0--3-3-0-1-|

--3--3--3--3------------------||--0-12-10-0-10-8-0-7-8-0-0--3-3-0-1-|

-------------3--3-3--3-3-3-3--||--0-12-10-0-10-8-0-7-8-0-0--3-3-0-1-|

S S S S S S S S S S E S S S S

------------------------------------|

------------------------------------|

------------------------------------|

--0-12-10-0-10-8-0-7-8-0-0--3-3-6-3-|

--0-12-10-0-10-8-0-7-8-0-0--3-3-6-3-|

--0-12-10-0-10-8-0-7-8-0-0--3-3-6-3-|

|--3--|

S S S S S S S S S S E S S S E

---------------------------------------|

---------------------------------------|

------------------------------------5--|

--0-12-10-0-10-8-0-7-8-0-0--0--3--5-5--|

--0-12-10-0-10-8-0-7-8-0-0--0--3--5-3--|

--0-12-10-0-10-8-0-7-8-0-0--0h-3h-5----|

S S S S S S S S S S E S S S S

------------------------------------|

------------------------------------|

------------------------------------|

--0-12-10-0-10-8-0-7-8-0-0--1-1-1-1-|

--0-12-10-0-10-8-0-7-8-0-0--1-1-1-1-|

--0-12-10-0-10-8-0-7-8-0-0--1-1-1-1-|

S S S S S S S S S S E S S S S

------------------------------------|

------------------------------------|

------------------------------------|

--0-12-10-0-10-8-0-7-8-0-0--3-3-0-1-|

--0-12-10-0-10-8-0-7-8-0-0--3-3-0-1-|

--0-12-10-0-10-8-0-7-8-0-0--3-3-0-1-|

S S S S S S S S S S E S S S S

------------------------------------|

------------------------------------|

------------------------------------|

--0-12-10-0-10-8-0-7-8-0-0--3-3-6-3-|

--0-12-10-0-10-8-0-7-8-0-0--3-3-6-3-|

--0-12-10-0-10-8-0-7-8-0-0--3-3-6-3-|

|--3--|

S S S S S S S S S S E S S S E

---------------------------------------|

---------------------------------------|

------------------------------------5--|

--0-12-10-0-10-8-0-7-8-0-0--0--3--5-5--|

--0-12-10-0-10-8-0-7-8-0-0--0--3--5-3--|

--0-12-10-0-10-8-0-7-8-0-0--0h-3h-5----|

S S S S S S S S S S E S S S S

------------------------------------|

------------------------------------|

------------------------------------|

--0-12-10-0-10-8-0-7-8-0-0--1-1-1-1-|

--0-12-10-0-10-8-0-7-8-0-0--1-1-1-1-|

--0-12-10-0-10-8-0-7-8-0-0--1-1-1-1-|

|--3--|

E E E S E S E E S S S E E E S E S E S S S S

|---------------------------------|------------------------------||

|---------------------------------|------------------------------||

|*--------------------------------|--5--5--5--5-----------------*||

|*--0--0--0--0-0--0-0--0--0--3--5-|--5--5--5--5-3--3-3--3-3-3-3-*||

|---0--0--0--0-0--0-0--0--0h-3h-5-|--3--3--3--3-3--3-3--3-3-3-3--||

|---0--0--0--0-0--0-0--0--0h-3h-5-|-------------3--3-3--3-3-3-3--||

|--3--|

S S S S S S S S S S S S S S S S S

---------------------------------------|

---------------------------------------|

*--------------------------------------|

*--0-0-0-0-0-0-0-0-0-0-0-0-0-0-0--3--5-|

---0-0-0-0-0-0-0-0-0-0-0-0-0-0-0h-3h-5-|

---0-0-0-0-0-0-0-0-0-0-0-0-0-0-0h-3h-5-|

E E E S E S E S S S S E E E S E S E S S S S

------------------------------||-----------------------------|

------------------------------||-----------------------------|

--5--5--5--5-----------------*||--5--5--5--5-----------------|

--5--5--5--5-3--3-3--3-3-3-3-*||--5--5--5--5-3--3-3--3-3-3-3-|

--3--3--3--3-3--3-3--3-3-3-3--||--3--3--3--3-3--3-3--3-3-3-3-|

-------------3--3-3--3-3-3-3--||-------------3--3-3--3-3-3-3-|

|--3--|

H. Q E E E S E S E E S S S

----------------------||---------------------------------|

----------------------||---------------------------------|

----------------------||*--------------------------------|

--0------------12\\----||*--------------------------------|

--0------------12\\----||---------------------------------|

--0------------12\\----||---0--0--0--0-0--0-0--0--0h-3h-5-|

E E E S E S E S S S S S S S S S S S S S S E S S S S

------------------------------||------------------------------------|

------------------------------||------------------------------------|

-----------------------------*||------------------------------------|

-----------------------------*||--0-12-10-0-10-8-0-7-8-0-0--3-3-0-1-|

--3--3--3--3------------------||--0-12-10-0-10-8-0-7-8-0-0--3-3-0-1-|

-------------3--3-3--3-3-3-3--||--0-12-10-0-10-8-0-7-8-0-0--3-3-0-1-|

S S S S S S S S S S E S S S S

------------------------------------|

------------------------------------|

------------------------------------|

--0-12-10-0-10-8-0-7-8-0-0--3-3-6-3-|

--0-12-10-0-10-8-0-7-8-0-0--3-3-6-3-|

--0-12-10-0-10-8-0-7-8-0-0--3-3-6-3-|

|--3--|

S S S S S S S S S S E S S S E

---------------------------------------|

---------------------------------------|

------------------------------------5--|

--0-12-10-0-10-8-0-7-8-0-0--0--3--5-5--|

--0-12-10-0-10-8-0-7-8-0-0--0--3--5-3--|

--0-12-10-0-10-8-0-7-8-0-0--0h-3h-5----|

S S S S S S S S S S E S S S S

------------------------------------|

------------------------------------|

------------------------------------|

--0-12-10-0-10-8-0-7-8-0-0--1-1-1-1-|

--0-12-10-0-10-8-0-7-8-0-0--1-1-1-1-|

--0-12-10-0-10-8-0-7-8-0-0--1-1-1-1-|

S S S S S S S S S S E S S S S

------------------------------------|

------------------------------------|

------------------------------------|

--0-12-10-0-10-8-0-7-8-0-0--3-3-0-1-|

--0-12-10-0-10-8-0-7-8-0-0--3-3-0-1-|

--0-12-10-0-10-8-0-7-8-0-0--3-3-0-1-|

S S S S S S S S S S E S S S S

------------------------------------|

------------------------------------|

------------------------------------|

--0-12-10-0-10-8-0-7-8-0-0--3-3-6-3-|

--0-12-10-0-10-8-0-7-8-0-0--3-3-6-3-|

--0-12-10-0-10-8-0-7-8-0-0--3-3-6-3-|

|--3--|

S S S S S S S S S S E S S S E

---------------------------------------|

---------------------------------------|

------------------------------------5--|

--0-12-10-0-10-8-0-7-8-0-0--0--3--5-5--|

--0-12-10-0-10-8-0-7-8-0-0--0--3--5-3--|

--0-12-10-0-10-8-0-7-8-0-0--0h-3h-5----|

S S S S S S S S S S E S S S S

------------------------------------|

------------------------------------|

------------------------------------|

--0-12-10-0-10-8-0-7-8-0-0--1-1-1-1-|

--0-12-10-0-10-8-0-7-8-0-0--1-1-1-1-|

--0-12-10-0-10-8-0-7-8-0-0--1-1-1-1-|

|--3--|

E E E S E S E E S S S E E E S E S E S S S S

|---------------------------------|------------------------------||

|---------------------------------|------------------------------||

|*--------------------------------|--5--5--5--5-----------------*||

|*--0--0--0--0-0--0-0--0--0--3--5-|--5--5--5--5-3--3-3--3-3-3-3-*||

|---0--0--0--0-0--0-0--0--0h-3h-5-|--3--3--3--3-3--3-3--3-3-3-3--||

|---0--0--0--0-0--0-0--0--0h-3h-5-|-------------3--3-3--3-3-3-3--||

|--3--|

S S S S S S S S S S S S S S S S S

---------------------------------------|

---------------------------------------|

*--------------------------------------|

*--0-0-0-0-0-0-0-0-0-0-0-0-0-0-0--3--5-|

---0-0-0-0-0-0-0-0-0-0-0-0-0-0-0h-3h-5-|

---0-0-0-0-0-0-0-0-0-0-0-0-0-0-0h-3h-5-|

E E E S E S E S S S S E E E S E S E S S S S

------------------------------||-----------------------------|

------------------------------||-----------------------------|

--5--5--5--5-----------------*||--5--5--5--5-----------------|

--5--5--5--5-3--3-3--3-3-3-3-*||--5--5--5--5-3--3-3--3-3-3-3-|

--3--3--3--3-3--3-3--3-3-3-3--||--3--3--3--3-3--3-3--3-3-3-3-|

-------------3--3-3--3-3-3-3--||-------------3--3-3--3-3-3-3-|

|--3--|

E E E S E S E E S S S E E E S E S E S S S S

--------------------------------|-----------------------------|

--------------------------------|-----------------------------|

--------------------------------|-----------------------------|

--0-----------------------------|-----------------------------|

--0-----------------------------|--3--3--3--3-----------------|

--0--0--0--0-0--0-0--0--0h-3h-5-|-------------3--3-3--3-3-3-3-|

|--3--|

E E E S E S E E S S S E E E S E S E S S S S

--------------------------------|-----------------------------|

--------------------------------|-----------------------------|

--------------------------------|-----------------------------|

--------------------------------|-----------------------------|

--------------------------------|--3--3--3--3-----------------|

--0--0--0--0-0--0-0--0--0h-3h-5-|-------------3--3-3--3-3-3-3-|

S S S S S S S E S S S S S S S

--10------------------------------------------------|

-----13-10------------------------------------------|

-----------12b-10----10-12br--------------------12b-|

------------------12----------12-10-12-12-12-12-----|

----------------------------------------------------|

----------------------------------------------------|

S S S S S S S S S S E E T T T T

---------10-10-13-10-10-13-10-10-15b--13---------10-----|

------13--------------------------------------10--------|

--12b-------------------------------------12b-------12b-|

--------------------------------------------------------|

--------------------------------------------------------|

--------------------------------------------------------|

T T T T T T T T T T T T T T T T T T T T T

-----10--------10--------10--------10--------10--------10--------10---

--10--------10--------10--------10--------10--------10--------10------

--------12b-------12b-------12b-------12b-------12b-------12b-------12

----------------------------------------------------------------------

----------------------------------------------------------------------

----------------------------------------------------------------------

S Q T T S S S S S S S E.

--12-15b----10-13-10-------------------------|

---------------------13-10-------------------|

---------------------------12-10----10-12b---|

---------------------------------12----------|

---------------------------------------------|

---------------------------------------------|

S S S Q S S S S S S S S S

---------------------------------------------10b-|

---------------------------------------10-13-----|

--12b-12b-12b-12b----10----------10-12-----------|

------------------------12-10-12-----------------|

-------------------------------------------------|

-------------------------------------------------|

S S S S T T S T T S S T T T T E T T T T T

--13-13-13-13b-15-13-10-----------------------------------------------

------------------------13-10-----------------------------------------

------------------------------12-10-----------------------------------

------------------------------------12p-10------------12p-10----------

-------------------------------------------10h-12-10---------12p-10---

--------------------------------------------------------------------12

T T T T T T T T T T T T T T T T T T T T

----------------------------------------------------------------------

----------------------------------------------------------------------

-------------12h-14p-12-----------------------------------------------

--12h-14h-15------------15p-14p-12------------------------------------

-----------------------------------15p-13p-12---------------10p-8-7p-5

----------------------------------------------15p-14-12p-10-----------

E E E S E S E S S S S S S S S S S S S S S E S S S S

-----------------------------|------------------------------------|

-----------------------------|------------------------------------|

--5--5--5--5-----------------|------------------------------------|

--5--5--5--5-3--3-3--3-3-3-3-|--0-12-10-0-10-8-0-7-8-0-0--3-3-0-1-|

--3--3--3--3-3--3-3--3-3-3-3-|--0-12-10-0-10-8-0-7-8-0-0--3-3-0-1-|

-------------3--3-3--3-3-3-3-|--0-12-10-0-10-8-0-7-8-0-0--3-3-0-1-|

S S S S S S S S S S E S S S S

------------------------------------|

------------------------------------|

------------------------------------|

--0-12-10-0-10-8-0-7-8-0-0--3-3-6-3-|

--0-12-10-0-10-8-0-7-8-0-0--3-3-6-3-|

--0-12-10-0-10-8-0-7-8-0-0--3-3-6-3-|

|--3--|

S S S S S S S S S S E S S S E

---------------------------------------|

---------------------------------------|

------------------------------------5--|

--0-12-10-0-10-8-0-7-8-0-0--0--3--5-5--|

--0-12-10-0-10-8-0-7-8-0-0--0--3--5-3--|

--0-12-10-0-10-8-0-7-8-0-0--0h-3h-5----|

S S S S S S S S S S E S S S S

------------------------------------|

------------------------------------|

------------------------------------|

--0-12-10-0-10-8-0-7-8-0-0--1-1-1-1-|

--0-12-10-0-10-8-0-7-8-0-0--1-1-1-1-|

--0-12-10-0-10-8-0-7-8-0-0--1-1-1-1-|

S S S S S S S S S S E S S S S

------------------------------------|

------------------------------------|

------------------------------------|

--0-12-10-0-10-8-0-7-8-0-0--3-3-0-1-|

--0-12-10-0-10-8-0-7-8-0-0--3-3-0-1-|

--0-12-10-0-10-8-0-7-8-0-0--3-3-0-1-|

S S S S S S S S S S E S S S S

------------------------------------|

------------------------------------|

------------------------------------|

--0-12-10-0-10-8-0-7-8-0-0--3-3-6-3-|

--0-12-10-0-10-8-0-7-8-0-0--3-3-6-3-|

--0-12-10-0-10-8-0-7-8-0-0--3-3-6-3-|

|--3--|

S S S S S S S S S S E S S S E

---------------------------------------|

---------------------------------------|

------------------------------------5--|

--0-12-10-0-10-8-0-7-8-0-0--0--3--5-5--|

--0-12-10-0-10-8-0-7-8-0-0--0--3--5-3--|

--0-12-10-0-10-8-0-7-8-0-0--0h-3h-5----|

S S S S S S S S S S E S S S S

------------------------------------|

------------------------------------|

------------------------------------|

--0-12-10-0-10-8-0-7-8-0-0--1-1-1-1-|

--0-12-10-0-10-8-0-7-8-0-0--1-1-1-1-|

--0-12-10-0-10-8-0-7-8-0-0--1-1-1-1-|

|--3--|

E E E S E S E E S S S E E E S E S E S S S S

|---------------------------------|------------------------------||

|---------------------------------|------------------------------||

|*--------------------------------|--5--5--5--5-----------------*||

|*--0--0--0--0-0--0-0--0--0--3--5-|--5--5--5--5-3--3-3--3-3-3-3-*||

|---0--0--0--0-0--0-0--0--0h-3h-5-|--3--3--3--3-3--3-3--3-3-3-3--||

|---0--0--0--0-0--0-0--0--0h-3h-5-|-------------3--3-3--3-3-3-3--||

|--3--|

S S S S S S S S S S S S S S S S S

---------------------------------------|

---------------------------------------|

*--------------------------------------|

*--0-0-0-0-0-0-0-0-0-0-0-0-0-0-0--3--5-|

---0-0-0-0-0-0-0-0-0-0-0-0-0-0-0h-3h-5-|

---0-0-0-0-0-0-0-0-0-0-0-0-0-0-0h-3h-5-|

E E E S E S E S S S S E E E S E S E S S S S

------------------------------||-----------------------------|

------------------------------||-----------------------------|

--5--5--5--5-----------------*||--5--5--5--5-----------------|

--5--5--5--5-3--3-3--3-3-3-3-*||--5--5--5--5-3--3-3--3-3-3-3-|

--3--3--3--3-3--3-3--3-3-3-3--||--3--3--3--3-3--3-3--3-3-3-3-|

-------------3--3-3--3-3-3-3--||-------------3--3-3--3-3-3-3-|

|--3--|

E E E S E S E E S S S E E E S E S E S S S S

|---------------------------------|------------------------------||

|---------------------------------|------------------------------||

|*--------------------------------|--5--5--5--5-----------------*||

|*--0--0--0--0-0--0-0--0--0--3--5-|--5--5--5--5-3--3-3--3-3-3-3-*||

|---0--0--0--0-0--0-0--0--0h-3h-5-|--3--3--3--3-3--3-3--3-3-3-3--||

|---0--0--0--0-0--0-0--0--0h-3h-5-|-------------3--3-3--3-3-3-3--||

|--3--|

S S S S S S S S S S S S S S S S S

---------------------------------------|

---------------------------------------|

*--------------------------------------|

*--0-0-0-0-0-0-0-0-0-0-0-0-0-0-0--3--5-|

---0-3-5-0-3-5-0-3-5-0-3-5-0-0-0h-3h-5-|

---0-0-0-0-0-0-0-0-0-0-0-0-0-0-0h-3h-5-|

E E E S E S E S S S S E E E S E S E S S S S

------------------------------||-----------------------------|

------------------------------||-----------------------------|

--5--5--5--5-----------------*||--5--5--5--5-----------------|

--5--5--5--5-3--3-3--3-3-3-3-*||--5--5--5--5-3--3-3--3-3-3-3-|

--3--3--3--3-3--3-3--3-3-3-3--||--3--3--3--3-3--3-3--3-3-3-3-|

-------------3--3-3--3-3-3-3--||-------------3--3-3--3-3-3-3-|

E. E. E. Q E S

------------------------||

--3---3---3-------------||

--2---2---2-------------||

--0---0---0-------------||

--0---0---0-------------||

--0---0---0-------------||

Duration Legend

---------------

W - whole

H - half

Q - quarter

E - 8th

S - 16th

T - 32nd

X - 64th

. - note dotted

|-n-| - n-tuplets

Tablature Legend

----------------

L - tied note

x - dead note

g - grace note

(n) - ghost note

> - accentuded note

NH - natural harmonic

AH - artificial harmonic

TH - tapped harmonic

SH - semi harmonic

PH - pitch harmonic

h - hammer on

p - pull off

b - bend

br - bendRelease

pb - preBend

pbr - preBendRelease

brb - bendReleaseBend

\

/ - tremolo bar dip

\

- tremolo bar dive

-/n - tremolo bar Release up

/n\\ - tremolo bar inverted dip

/n - tremolo bar return

-\

- tremolo bar Release down

S - shift slide

s - legato slide

/ - slide into from below or out of upwards

\\ - slide into from above or out of downwards

~ - vibrato

W - wide vibrato

tr - trill

TP - tremolo picking

T - tapping

S - slap

P - pop

Added by tabs-database.com and our distinguished partners

Get this song at:  amazon.com

Share your thoughts

0 Comments found