Misc Unsigned Bands

Misc Unsigned Bands - Collateral Damage - Conceited Bass guitar tab

-----------------------------------------------------------------------------

CONCEITED - Collateral Damage

-----------------------------------------------------------------------------

Tabbed By :FoxyGramps5543

e-mail:webmaster at tabs-database.com.com

Tuning:Standard

I

N G|----------------------------------------------------------------|

T D|----------------------------------------------------------------|

R A|----------------------------------------------------------------|

O E|-0-0-2-3--0-0-2-3--3-3-5-6--3-3-5-6--0-0-2-3--------------------|

G|--------------------------------------------------------------------------|

D|--------------------------------------------------------------------------|

A|--------------------------------------------------------------------------|

E|-5-4-2-2-4-5-9-7--5-4-2-2-4-5-9-7-7--5-4-2-2-4-5-9-7--5-4-2-2-2-4-5-9-7---"

I am Conceited I have no place to go I have nobody That is what i hear so

G|--------------------------------------------------------------------------|

D|--------------------------------------------------------------------------|

A|--------------------------------------------------------------------------|

E|-5-4-2-2-4-5--5-4-2-2-4-5--5-4-2-2-4-5--5-4-2-2-2-------------------------|

I am Conceited With no Place to go

G|--------------------------------------------------------------------------|

D|--------------------------------------------------------------------------|

A|--------------------------------------------------------------------------|

E|-0-2-3-0-2-3-0-2-3-0-2-3--3-5-6-3-5-6-3-5-6-3-5-6-3-5-6-3-5-6-3-5-6-3-5-6-|

People say I am all I care about

G|--------------------------------------------------------------------------|

D|--------------------------------------------------------------------------|

A|--------------------------------------------------------------------------|

E|-0-2-3-0-2-3-0-2-3-0-2-3--3-5-6-3-5-6-3-5-6-3-5-6--1-3-4------------------|

As they walk away I hear them say I'm Conceited

Repeat for all verses then chorus then the intro for the outro

| / slide up

| \\ slide down

| h hammer-on

| p pull-off

| ~ vibrato

| + harmonic

| x Mute note

=============================================================================

Added by tabs-database.com and our distinguished partners

Get this song at:  amazon.com

Share your thoughts

0 Comments found