Misc Unsigned Bands

Misc Unsigned Bands - Chilblain - Boots On The Table guitar tab

-------------------------------------------------------------------------------

boots on the table - chilblain!

---------------------------------www.chilblainmusic.tk-------------------------

Tabbed by:luke m

Email:lidrules@hotmail.com

Tuning:eadgbe

intro

e|---7---7----7--7-------|

B|---8---8----7--7-------|do this 8 times and play song with reggae feel

G|---9---9----8--8-------|

D|-----------------------|

A|-----------------------|

E|-----------------------|

verse

e|---7--7---77------------------|

B|---8--8---88------------------|pay this 4 times

G|---9--9---99------------------|

D|------------------------------|

A|------------------------------|

E|------------------------------|

chorus

e|---9--9--9--9---7--7--7--7-----------------|

B|---9--9--9--9---7--7--7--7-----------------|

G|---9--9--9--9---7--7--7--7-----------------|

D|---9--9--9--9------------------------------|

A|-------------------------------------------|

E|-------------------------------------------|

e|---7 5 4 0 extra bit

order, intro verse chorus verse extra chourus verse inro xtra

| / slide up

| slide down

| h hammer-on

| p pull-off

| ~ vibrato

| + harmonic

| x Mute note

===============================================================================

Get this song at:  amazon.com

Share your thoughts

0 Comments found