Misc Unsigned Bands

You Me At Six - Save It For The Bedroom Tabs



More from Misc Unsigned Bands

Misc Unsigned Bands Tabs
Misc Unsigned Bands Chords
Misc Unsigned Bands Bass

tabs-database.com[http://www.tabs-database.com.com/]





You Me At Six Save it for the bedroom



Tabbed by: Jason Stewart

Email: webmaster at tabs-database.com.com



Tuning: Drop D





Intro part one:



e|-----------------------------------------------|

B|-----------------------------------------------|

G|---6-------------------------------------------|

D|---x-(play continuously through first part)----|

A|---4-------------------------------------------|

D|-----------------------------------------------|



Intro Part 2/ Verse:



Guitar 1:



NOT EXACT TIMING!!!!!!!!!!!!!!!!!!!!!



e|------------------------------------------------------------------|

B|------------------------------------------------------------------|

G|--------------------------------------------------14-14-14-14-14--|

D|--6--11-10--6--13--11-10--8--10-11-13---6--8--10--13-13-13-13-13--| X2

A|--x--x--x---x--x---x--x---x--x--x--x----x--x--x----x--x--xx---x--|

D|--4--9--8---4--11--9--8---6--8--9--11---4--6--8---11-11-11-11-11--|





Guitar 2:



e|-------------| |-----------|

B|-------------| |-----------|

G|--6----------| |-6-6-6-6-6-|

D|--6--4--6--4-| |-6-6-6-6-6-|

A|--4--4--6--4-| |-4-4-4-4-4-|

D|-----4--6--4-| |-----------|



Chorus:



e|-----------------|

B|-----------------|

G|--6--------------| (continuously)

D|--6--4--8--4-----|

A|--4--4--8--4-----|

D|-----4--8--4-----|



Verse Power Chords different strumming times and speed



Pre Chorus:



BOTH GUITARS!

e|------------|

B|------------|

G|------------|

D|--6--4------|

A|--6--4------|

D|--6--4------|





GUITAR 1:

e|----------------|

B|-14-14-14-14-14-|

G|-13-13-13-13-13-|

D|--x--x--x-x--x-|

A|-11-11-11-11-11-|

D|----------------|





GUITAR 2:

e|-----------|

B|-----------|

G|-6-6-6-6-6-|

D|-6-6-6-6-6-|

A|-4-4-4-4-4-|

D|-----------|





Chorus X2



e|------|

B|------|

G|--6---| (Let ring through break)

D|--6---|

A|--4---|

D|------|



Break:



Guitar 2



e|--------------------------------------------|

B|--------------------------------------------|

G|--------------------------------------------|

D|--6--13--11--10-----6-/8-/6-----------------|

A|--x--x---x---x------x-/x-/x-----------------|

D|--4--11--9---8------4-/6-/4-----------------|





e|----------------------------------------------------|

B|-14-13----14-13----14-13-14-13----14-13-----16-13---|

G|-------13-------13-------------13--------13---------| X4

D|----------------------------------------------------|

A|----------------------------------------------------|

D|----------------------------------------------------|





CHORUS:

with little riff below but tremor pick every note quickly for 2 seconds each =)



e|----------------------|

B|-14-13-16-13----------|

G|----------------------|

D|----------------------|

A|----------------------|

D|----------------------|



LAST CHROUS:



e|---------|

B|---------|

G|--6------|

D|--6--4---|

A|--4--4---|

D|-----4---|





e|----------------------------------------------------|

B|-14-13----14-13----14-13-14-13----14-13-----16-13---|

G|-------13-------13-------------13--------13---------| X4

D|----------------------------------------------------|

A|----------------------------------------------------|

D|----------------------------------------------------|





OUTRO:





e|-------|

B|-------|

G|--6----|

D|--6----|

A|--4----|

D|-------|



e|----------------------|

B|-14-13-16-13-14-14-14-|

G|----------------------|

D|----------------------|

A|----------------------|

D|----------------------|





YOU HAVE TO FIGURE OUT THE TIMING BY YOURSELF I WILL RECORD IT ON YOUTUBE SO IF YOU NEED

MESSAGE ME =P



| / slide up

| \ slide down

| h hammer-on

| p pull-off

| + harmonic

| x Mute note

==================================================================Added by tabs-database.com and our distinguished partners
Get this song at amazon.com      Ebay     Ringtones Ringtones  


Learn to play: Songwriting, Piano, Harmonica, Guitar

Related Misc Unsigned Bands Tabs

The Corners - Tealer tabs
Alternosfer - Asta Vara tabs
New Age Murder - Deadball tabs
Havoc - Cause For Rebellion Intro tabs
Xoxo Panda - Boys And Girls Good tabs
Good Compared 2 Nothing - Qwerty tabs
Go Ahead - Supposedly tabs
Ambulance Ltd - Heavy Lifting tabs
Kraze - Yeah tabs
This Side Down - In Mid-fall tabs
Rejected Theory - Biiter-sweet Dream tabs
Jesus The Cave Monkeys - Lance Vance tabs
Sharp Side Up - No Sex No Drugs No Rock No Roll tabs
Six Inch Voices - Every Days The Day That Youve Been Waiting For tabs
Devils Warfare-rock Like That tabs
Pepper - Toungues tabs
Fiftyone - Heartbreak tabs
The Core - Falling Apart tabs
Abandoned - Runaway tabs
Corporeal - All We Got Bass tabs


Guitar Tabs









All tabs are property and copyright of their owners. All tabs provided for educational purposes only. Privacy Policy, DMCA