Misc Unsigned Bands

Virgin Gone Wrong-screw You Tabs



More from Misc Unsigned Bands

Misc Unsigned Bands Tabs
Misc Unsigned Bands Chords
Misc Unsigned Bands Bass



intro/chorus
e------------------------------------------------------------------
b------------------------------------------------------------------
g------------------------------------------------------------------
d------------------------------------------------------------------X4
a-7-7-6-6-0-0-6-6-5-5-0-0-5-5-4-4-0-0-4-4-3-3-0-0------------------
e-7-7-6-6-0-0-6-6-5-5-0-0-5-5-4-4-0-0-4-4-3-3-0-0------------------

e------------------------------------------------------------------
b------------------------------------------------------------------
g------------------------------------------------------------------
d------------------------------------------------------------------X2
a------------------------------------------------------------------
e-1-0-1-0-1-0-1-0/12-0-12-0-12-0-12-0------------------------------

there's like a little drum roll here and it repeats the intro

verse
e------------------------------------------------------------------
b------------------------------------------------------------------
g------------------------------------------------------------------
d------------------------------------------------------------------
a---7---6---0---6---5---0---5---4---0---4---3---0------------------
e-7---6---0---6---5---0---5---4---0---4---3---0--------------------


thats it. I did want to put a solo in, but didn't really want to



Get this song at amazon.com      Ebay     Ringtones Ringtones  


Learn to play: Songwriting, Piano, Harmonica, Guitar

Related Misc Unsigned Bands Tabs

Second Time Lucky - Rememberence Song tabs
Salute The Lunacy - Finding My Way Home tabs
Lightspeed Champion - Tell Me What Its Worth tabs
The Democracy Effect - Number Not A Person tabs
A Twizdid Tale - In A Little Box Of Sin tabs
Caleb 5v - Avenge The Fallen (solo) tabs
Dystopia - George And Saddam Dont Get Along tabs
My Awesome Compilation - You Need Discipline tabs
Harlots - Alien tabs
33 West - Leopold And Loeb tabs
Three Fourths J - China Fever tabs
Gonzaw - Estanium tabs
Through Blind Eyes - Marionette Priest tabs
Millionfux - Kill Another But Not Me tabs
The Street Pharmacy - In This Town tabs
Random Acoustic Song tabs
Remnants Of Tomorrow - Exorsism tabs
Blades - Mr Dj tabs
Paranoid - Give Me An Answer tabs
Romantic Retards - What We Want tabs


Guitar Tabs









All tabs are property and copyright of their owners. All tabs provided for educational purposes only. Privacy Policy, DMCA