Misc Unsigned Bands

Trust Is A Word - You Gonna Eat That Dead Fat Guy Bass Tabs



More from Misc Unsigned Bands

Misc Unsigned Bands Tabs
Misc Unsigned Bands Chords
Misc Unsigned Bands Bass



Intro

g-------------------------------------------|

d-------------------------------------------|

a-4-4-4-4-4-0-0-0-0-0-0-2-2-2-2-2-7-7-7-7-7-|

E-------------------------------------------|



g------------------------------------4-----|

d---------------------------------2----2---|

a-4-4-4-4-4-0-0-0-0-0-0-2-2-2-2-2--------2-|

E------------------------------------------|



g-------------------------------------------|

d-------------------------------------------|

a-4-4-4-4-4-0-0-0-0-0-0-2-2-2-2-2-7-7-7-7-7-|

E-------------------------------------------|



g----------------------------------------------|

d---------------------------------6-6-44-22-11-|

a-4-4-4-4-4-0-0-0-0-0-0-2-2-2-2-2--------------|

E----------------------------------------------|



Chorus Part

g----------------------------------------------|

d----------------------------------------------|

a-4-4-4-4-4-0-0-0-0-0-0-2-2-2-2-2-7-7-99-77-66-|

E----------------------------------------------|



g------------------------------------4-----|

d---------------------------------2----2---|

a-4-4-4-4-4-0-0-0-0-0-0-2-2-2-2-2--------2-|

E------------------------------------------|



g----------------------------------------------|

d----------------------------------------------|

a-4-4-4-4-4-0-0-0-0-0-0-2-2-2-2-2-7-7-99-77-66-|

E----------------------------------------------|



g----------------------------------------------|

d---------------------------------6-6-44-22-11-|

a-4-4-4-4-4-0-0-0-0-0-0-2-2-2-2-2--------------|

E----------------------------------------------|



next part

g--------------------------------------------------------------------------------|

d--------------------------------------------------------------------------------|

a-4-4-4-4-4-4-4-4-4-4-4-4-7-7-7-7-7-7-7-7-7-0-0-0-0-0-0-0-0-0-2-2-2-2-2-2-2-2-2--|

E--------------------------------------------------------------------------------|



repeat chorus part



breakdown

g---------------------------------------|

d---------------------------------------|

a-4-4x----0-0x-----2-2x----7-7-99-77-66-|

E---------------------------------------|



g--------------------------1-1----------|

d------------------------------44-22-11-|

a-4-4x----0-0x-----2-2x-----------------|

E---------------------------------------|



repeat chorus part for the rest of the song



end on:

a-4~-Added by tabs-database.com and our distinguished partners
Get this song at amazon.com      Ebay     Ringtones Ringtones  


Learn to play: Songwriting, Piano, Harmonica, Guitar

Related Misc Unsigned Bands Tabs

The Drennan Bragg Experience- Out Of The Dust tabs
Sky Walker - Orange And Gray Acoustic Version tabs
Dicks In The Sun - Dirt On The Toe tabs
Idyetz - Terror Bass tabs
Dirty Monkeys - The Day The Sun Died tabs
Bare Egil Band - Gunnar tabs
Why Do You Love Me - Plaid Gig tabs
Radio Pirate Dj - Kimberly Vegas tabs
Red Orchestra - Dum Dee Da Daa Duum tabs
The Missing Brains - Archangel tabs
Classmate 67 - Hello To Me From You tabs
Stalking Susan - Running In The Rain Bass tabs
Magic Bullet - In My Head tabs
The Bulldogs - Lfm Song Bass tabs
Kool Shades - Danger Sign tabs
Discord - Sexy Needle tabs
Cromok - Another You tabs
Neuroplay - Untitled tabs
Outta Sight - Trying tabs
Red Elektrika - Allright With Me tabs


Guitar Tabs









All tabs are property and copyright of their owners. All tabs provided for educational purposes only. Privacy Policy, DMCA