Misc Unsigned Bands

The Same Page - City Lights Tabs



More from Misc Unsigned Bands

Misc Unsigned Bands Tabs
Misc Unsigned Bands Chords
Misc Unsigned Bands Bass

                            "City Lights"

by The Same Page





Standard Tuning

Capo - 4

________________________________________________________



"verse"





"it' getting.." "getting the best.."

F7 (let ring) Gadd6 (let ring)

|-0--------------(0)-|-0--------------(0)-|

|-1--------------(1)-|-3--------------(3)-|

|-2--------------(2)-|-4--------------(4)-|

|-3--------------(3)-|-5--------------(5)-|

|-3--------------(3)-|-5--------------(5)-|

|--------------------|--------------------|



(Am)

|----0---5-----3-----0---0h1p0-----|---------------------------------|

|----------0-----0-----0-------3-0-|-(0)--0-----0-------0----0---0---|

|--2---2-----2-----2---------------|----2---2/9---9-7--(7)-5---5---0-|

|----------------------------------|---------------------------------|

|0---------------------------------|---------------------------------|

|----------------------------------|---------------------------------|



"I'm so glad.." "But I won't..

F7 (let ring) Gadd6 (let ring)

|-0--------------(0)-|-0--------------(0)-|

|-1--------------(1)-|-3--------------(3)-|

|-2--------------(2)-|-4--------------(4)-|

|-3--------------(3)-|-5--------------(5)-|

|-3--------------(3)-|-5--------------(5)-|

|--------------------|--------------------|





(Am) G Csus2 (G/Bm)

|----0---5-----3-----0---0h1p0-----|----------3-----------------------|

|----------0-----0-----0-------3---|------3-----3---------3-------3---|

|--2---2-----2-----2---------------|--------0-----0-----0---0---0---0-|

|----------------------------------|----0-----------------------------|

|0---------------------------------|----------------3-(3)-----2-------|

|--------------------------------3-|-(3)------------------------------|



_____________

pre-chorus

____________________________________

|1,2,& 3 endings

"stare close to...."

F7 Gadd6

|---0-----0---0-0---0-0-----0---0-0--|-0-----0-0-0-----0-0-----0-0-0-----|

|---1-----1p0-0-1---1-1-----1---1-1--|-3-----3-3-3-----3-3-----3-3-3-----|

|o--2-----2---2-2---2-2-----2p0-0-0--|-0-----0-0-0-----0-4-----4-4-4----o|

|o--3-----3---3-3---3-3-----3---3-3--|-5-----5-5-5-----5-5-----5-5-5----o|

|---3-----3---3-3---3-3-----3---3-3--|-5-----5-5-5-----5-5-----5-5-5-----|

|------------------------------------|-----------------------------------|



_________________

|4th ending



E E7

|-0----0---0-0----0-0-0-0------0-0-|-0-----0---0-0------0-0-0-0---0-0-|

|-0----0---0-0----0-0-0-0------0-0-|-3-----3---3-3------3-3-3-3---3-3-|

|-1----1---1-1----1-1-1-1------1-1-|-1-----1---1-1------1-1-1-1---1-1-|

|-2----2---2-2----2-2-2-2------2-2-|-2-----2---2-2------2-2-2-2---2-2-|

|-2----2---2-2----2-2-2-2------2-2-|-2-----2---2-2------2-2-2-2---2-2-|

|-0----0---0-0----0-0-0-0------0-0-|-0-----0---0-0------0-0-0-0---0-0-|





__________________

"Chorus"



"I can't breathe tonight.."

Am F7add4 Csus2 E 4x

|--0------0----0-0-----------------|-0----0-0-0----0---------------------|

|--1------1----1-0----0-0-0-0--0-0-|-3----3-3-3----3-0----0-0-0-0---0-0--|

|o-2------2----2-2----2-2-2-2--2-2-|-0----0-0-0----0-1----1-1-1-1---1-1-o|

|o-2------2----2-3----3-3-3-3--3-3-|-2----2-2-2----2-2----2-2-2-2---2-2-o|

|--0------0----0-3----3-3-3-3--3-3-|-3----3-3-3----3-2----2-2-2-2---2-2--|

|----------------------------------|-----------------0----0-0-0-0---0-0--|



___________________

"bridge 1"



(Am)

|----0---5-----3-----0---0h1p0-----|-----------------------------------|

|----------0-----0-----0-------3-0-|-(0)--0-----0-------0----0---0-----|

|--2---2-----2-----2---------------|----2---2/9---9-7--(7)-5---5---0---|

|----------------------------------|-----------------------------------|

|0---------------------------------|---------------------------------0-|

|----------------------------------|-----------------------------------|





D Csus2 G

|------0---5----/7--(7)p5p0---3p2-----|---------0------------------------|

|------------0--------------------3---|-----3-----3----------3-------3---|

|----2---2-----2--------------------2-|-------0-----0------0---0---0---0-|

|---------------------------0---------|---2------------------------------|

|-(0)---------------------------------|-3-------------2-(2)--------------|

|-------------------------------------|--------------------------3-------|





repeat verse, prechorus and chorus



_______________________________

guitar solo



|--------5-7-8--7h8p7p5---5--------|----------------------------------|

|-------5---------------8---8-8/10-|----------------------------------|

|------5---------------------------|-9----10-9--5h7p5\4-5-4h5-4-------|

|-----7----------------------------|------------------------------7p5-|

|----------------------------------|----------------------------------|

|----------------------------------|----------------------------------|





|----------------------------------|----------------------------------|

|----------------------------------|------10---10/12------------------|

|----------------------------------|----9----9-------12~---10-9-\-----|

|----------------------------------|----------------------------------|

|-7~----------------5~-------------|-12-------------------------------|

|----------------------------------|----------------------------------|





|------------------------------|------------------------------8----10-/12-|

|------------------------------|------------------5-8-10p8h10---10--------|

|----------------------4h5p4---|--------------5-7-------------------------|

|---------5---5h7~-~---------7-|---------5--------------------------------|

|-----5/7---7------------------|\5-3h5/7---7~-----------------------------|

|------------------------------|------------------------------------------|





|(12)~------10~---------8-6/7---|---------------------------------|

|-----------------------------8-|---------------------------------|

|-------------------------------|-9~----------7-~-------4h5p4-----|

|-------------------------------|-----------------------------5h7-|

|-------------------------------|---------------------------------|

|-------------------------------|---------------------------------|





|---------------------------------|

|---------------------------------|

|---------------------------------|

|---------------------------------|

|-5h7~~~--------------------------|

|---------------------------------|



____________

"bridge 2"



Am F Csus2 G 2x

|----------0---------------1-------|---------0---------------3--------|

|--------1---1-----------1---1-----|-------3---3---------------3------|

|o-----2-------2-------2-------2---|-----0-------0---------0-----0---o|

|o---2-----------2---3-----------3-|---2-----------2-----0---------0-o|

|--0--------------(3)--------------|-3-----------------2--------------|

|----------------------------------|-----------------3----------------|





_____________

"bridge 3"



E Dm Am

|--0---0-0-0---0-0---0-0-0-0--0-0-|-1---1-1-1--1-0----0-0-0-0---0-0-|

|--0---0-0-0---0-0---0-0-0-0--0-0-|-3---3-3-3--3-1----1-1-1-1---1-1-|

|o-1---1-1-1---1-1---1-1-1-1--1-1-|-2---2-2-2--2-2----2-2-2-2---2-2-|

|o-2---2-2-2---2-2---2-2-2-2--2-2-|-0---0-0-0--0-2----2-2-2-2---2-2-|

|--2---2-2-2---2-2---2-2-2-2--2-2-|--------------0----0-0-0-0---0-0-|

|--0---0-0-0---0-0---0-0-0-0--0-0-|---------------------------------|



________________________________

| 1st

C C7 Am G G7

|-0---0-0-0--0-0-0---0-0-0-0---0-0-|-3---3-3-3----3-1------1-1-1-1--1-1--|

|-1---1-1-0--0-0-1---1-1-1-1---1-1-|-3---3-3-3----3-0------0-0-0-0--0-0--|

|-0---0-0-0--0-0-2---2-2-2-2---2-2-|-0---0-0-0----0-0------0-0-0-0--0-0-o|

|-2---2-2-2--2-2-2---2-2-2-2---2-2-|-0---0-0-0----0-0------0-0-0-0--0-0-o|

|-3---3-3-3--3-3-0---0-0-0-0---0-0-|-2---2-2-2----2-2------2-2-2-2--2-2--|

|----------------------------------|-3---3-3-3----3-3------3-3-3-3--3-3--|



_________________

|2nd

G G7

|-3---3-3-3---3-3---3-3-3-3---3-3-|-1---1-1-1---1-1---1-1-1-1--1-1-|

|-3---3-3-3---3-3---3-3-3-3---3-3-|-0---0-0-0---0-0---0-0-0-0--0-0-|

|-0---0-0-0---0-0---0-0-0-0---0-0-|-0---0-0-0---0-0---0-0-0-0--0-0-|

|-0---0-0-0---0-0---0-0-0-0---0-0-|-0---0-0-0---0-0---0-0-0-0--0-0-|

|-2---2-2-2---2-2---2-2-2-2---2-2-|-2---2-2-2---2-2---2-2-2-2--2-2-|

|-3---3-3-3---3-3---3-3-3-3---3-3-|-3---3-3-3---3-3---3-3-3-3--3-3-|



E E7

|-0------(0)----------------------|-0------(0)--------------0-0-0-0-|

|-0------(0)--------------0-0-0-0-|-3------(3)------3-3-3-3-3-3-3-3-|

|-1------(1)------1-1-1-1-1-1-1-1-|-1-------1-1-1-1-1-1-1-1-1-1-1-1-|

|-2-------2-2-2-2-2-2-2-2-2-2-2-2-|-2-2-2-2-2-2-2-2-2-2-2-2-2-2-2-2-|

|-2-2-2-2-2-2-2-2-2-2-2-2-2-2-2-2-|-2-2-2-2-2-2-2-2-2-2-2-2-2-2-2-2-|

|-0-0-0-0-0-0-0-0-0-0-0-0-0-0-0-0-|-0-0-0-0-0-0-0-0-0-0-0-0-0-0-0-0-|









"I can't breathe....

|-0----------------------|

|-3----------------------|

|-1----------------------|

|-2----------------------|

|-2----------------------|

|-0----------------------|





end on chorus with piano ending.





Added by tabs-database.com and our distinguished partners
Get this song at amazon.com      Ebay     Ringtones Ringtones  


Learn to play: Songwriting, Piano, Harmonica, Guitar

Related Misc Unsigned Bands Tabs

Eargasm - The Bert Newton Song tabs
Pink Leopard - Tear Me Apart tabs
Checkered Stripe - Call Mom tabs
The Whorewoods - Callenetics tabs
Madsen - Mein Therapeut Ich tabs
Bloodthirsty - Spawned tabs
Inspired - Follow Me tabs
Boys Sold Separately - I Woke Up Three Times tabs
Strata - When Its All Burnin tabs
Irrelevance - Suicidal Singalong tabs
Counterlife - Blackism tabs
Standard Play - Fast Forward Intro tabs
Loose Cannon - 32 tabs
Urgency - Make Your Escape tabs
Over Time - Its All Fucked Up tabs
Detached - Numbers tabs
Some Kind Of Hero - My Song tabs
The English Panther - The Storm tabs
Novation - Rewind tabs
7 Wednesdays - Unforgivable Bass tabs


Guitar Tabs









All tabs are property and copyright of their owners. All tabs provided for educational purposes only. Privacy Policy, DMCA