Misc Unsigned Bands

The Random Rockers- Boredom Tabs



More from Misc Unsigned Bands

Misc Unsigned Bands Tabs
Misc Unsigned Bands Chords
Misc Unsigned Bands Bass




I was just hittin random notes and came up with this.

Intro & Verse
|-------------------------------------|
|-1-1---------1-1---------------------|
|-----3-1-3-1-------------------------|
|-------------------------------------|
|-------------------1h2h3-1h2h3-1h2h3-|
|3-3-3-------3-3-3-3------------------|

Chorus
|--------------------------------------------|
|--------------------------------------------|
|--------------------------------------------|
|--------3333313-----------------------------|
|----1111-----------11113333313--------------|
|3333-----------3333-------------------------|

Solo
|-------------------------------------------------------1-|
|----------------------------------------------------3----|
|5h9-6-4-5-6-----7h8p7----------------------------4-------|
|-----9-----7h8p7-------------20h21-20h21-20h21--6--------|
|---------------------12h15p13----------------------------|
|---------------------------------------------------------|



Get this song at amazon.com      Ebay     Ringtones Ringtones  


Learn to play: Songwriting, Piano, Harmonica, Guitar

Related Misc Unsigned Bands Tabs

The Drennan Bragg Exrerience- Flow tabs
The Corners - Pettin And The Children tabs
Closer Than They Appear - Summer Friends tabs
Deepest Blue - Shooting Star tabs
Demonic Forces - Rising Awake tabs
Red Orchestra - Dum Dee Da Daa Duum tabs
Sedatives - Dancing Swordfish tabs
Jeff Carter - Jootmin Intro tabs
I Just Wanna - The Whit Hendrix-dylan Berry tabs
Ex-yu-rokeri - Neka Pjesma tabs
My Darkest Days - Save Me tabs
Anti Society - The Black Plague Bass tabs
Journey From The Grave - Fire Bass tabs
Hourglass- ' Saving You' tabs
Devil Hunters - Kill God By Pushing Him Off The Clouds tabs
Sponge Cola - Cigarette tabs
Inhumane - The One tabs
Rockabunny - The Dead Generation tabs
Straterra - Warphene tabs
Decibel - Naagin tabs


Guitar Tabs









All tabs are property and copyright of their owners. All tabs provided for educational purposes only. Privacy Policy, DMCA