Misc Unsigned Bands

The Cuts - Minimum Wage Bass Tabs



More from Misc Unsigned Bands

Misc Unsigned Bands Tabs
Misc Unsigned Bands Chords
Misc Unsigned Bands Bass



The Cuts- Minimum Wage, Minimum Effort



Intro...after guitar..



G-----------------------------|

D-----------------------------|

A-----------------------------|

E--7------7-7-7----3333222/---|



G--------------------------------------------------|

D--------------------------------------------------|

A------------7---------------------242--242------|

E--7-777-77-7---7-777-77-7-0------3----3---------|..UNTIL SINGIN KICKS IN



VERSE

G-----------------------------------------|

D-----------------------------------------|

A------------7----------------242--242---|

E-7-777-77-7---7-777-77-7-0--3----3------|



G-------------------------------------|

D-------------------------------------|

A--------------242-242----------------|

E-777--77/1---3---3-------------------|



Repeat this until before the chorus comes in where you play....





G--------------------------------------------|

D--------------------------------------------|

A------------7-----------------242-234------|

E-7-777-77-7---7-777-77-7-0---3---3---------|



Chorus..



G---------------------|

D---------------------|

A---------------------|

E-3333-2222-3333-2222-|x2



Wee Fill

G---------------------------|

D---------------------------|

A---------------------------|

E-7-777-77-7-7--33332222/---|



Back to verse....



Last Chorus (3rd)

G---------------------|

D---------------------|

A---------------------|

E-3333-2222-3333-2222-|x2



On 3rd time

G-----------------------|

D-----------------------|

A-----------------------|

E-3333--222/---7~-------|





Outro when playing Live...

G----------------------------------------------------|

D----------------------------------------------------|

A----------------------------------------------------|

E-3333-2222-3333-2222/-7---5--3--2-----7--5-3---2//7-|x3







Intro

Verse

Chorus

Fill

Verse

Chorus

Fill

Verse

Chorus

Outro

Added by tabs-database.com and our distinguished partners
Get this song at amazon.com      Ebay     Ringtones Ringtones  


Learn to play: Songwriting, Piano, Harmonica, Guitar

Related Misc Unsigned Bands Tabs

Finnegans Lads - Whiskeyday Everyday tabs
Girugamesh - Having Betrayed Is Why tabs
Random Thoughts - Bruising Skin And Breaking Hearts tabs
Mmf - Loves Such A Drag tabs
Cast Of Family - Tt To The tabs
Fuhgawz - Agarrame El Pene Que Esta Bien Parado tabs
Split Second Kill - Shit Hawk tabs
The Immortal Change - Screaming In Harmony tabs
Elemental Distress - Doom Of Darkness tabs
Closer Than They Appear - Summer Friends tabs
Real World Dilemma - Thats That tabs
Aureal - Eres Sol tabs
This Side Down - Emo Kids Unite Intro tabs
F M I - Screaming Taradactyl Of Death tabs
Cursed - Cursed tabs
Gavina - Fender Bender tabs
Zander - At The Door Intro tabs
Vaginal Incest - Ejaculation During Rectal Knife Fuck tabs
Small Town 60 - Choices tabs
Ssg - Voyager tabs


Guitar Tabs









All tabs are property and copyright of their owners. All tabs provided for educational purposes only. Privacy Policy, DMCA