Misc Unsigned Bands

The Bad Names - Cut The Curtains Tabs



More from Misc Unsigned Bands

Misc Unsigned Bands Tabs
Misc Unsigned Bands Chords
Misc Unsigned Bands Bass

[INTRO]

E|-------------------------------------------------------|

B|-------------------------------------------------------|

G|--------------7-7-7-x-x-x---------------9--------------|

D|-9-9-9-x-x-x--7-7-7-x-x-x--7-7-7-x-x-x--9p7h9p7h9p7--9-|

A|-9-9-9-x-x-x--5-5-5-x-x-x--7-7-7-x-x-x--7------------9-|

E|-7-7-7-x-x-x---------------5-5-5-x-x-x---------------7-|



> x2



E|-------------------------------------------------------|

B|-------------------------------------------------------|

G|--------------7-7-7-x-x-x---------------9--------------|

D|-9-9-9-x-x-x--7-7-7-x-x-x--7-7-7-x-x-x--9--------------|

A|-9-9-9-x-x-x--5-5-5-x-x-x--7-7-7-x-x-x--7--------------|

E|-7-7-7-x-x-x---------------5-5-5-x-x-x-------Added by tabs-database.com and our distinguished partners
Get this song at amazon.com      Ebay     Ringtones Ringtones  


Learn to play: Songwriting, Piano, Harmonica, Guitar

Related Misc Unsigned Bands Tabs

Sln - Nicoles New Dog tabs
If We Were Us - Everyone Has Germs Even You tabs
Silent Sounds - Ready Far tabs
Forgive Me - Versus The World tabs
Deprived Of The Truth - Stick God Up Your Ass tabs
Pierced - Not Forsaken tabs
Pepper - Boot tabs
Blue Morgan - Clint Eastwood tabs
The Pagans - I Wont Make It Through Bass tabs
Memoir - Shes Gone tabs
Murgent - Gold tabs
The Envirocides - Dirt Man tabs
September Solstice - Purgatory tabs
Too Late The Hero - Human Tragedy tabs
The Quality Meats - Nightgull tabs
Reduced To Clear - Nerd Boy Party tabs
The Catholics - Home tabs
Dagon - Dagon tabs
Low Frecuency - The End tabs
Boyce Avenue - Find Me tabs


Guitar Tabs









All tabs are property and copyright of their owners. All tabs provided for educational purposes only. Privacy Policy, DMCA