Misc Unsigned Bands

She Loves Me-the Craigs Tabs



More from Misc Unsigned Bands

Misc Unsigned Bands Tabs
Misc Unsigned Bands Chords
Misc Unsigned Bands Bass




This is She Loves Me by the Craigs.

PART A
e-------------------------------------------------------------------
B-------------------------------------------------------------------
G-------------------------------------------------------------------
D----9-------9----9-------9-----11-------11----9-------9------------
A----------------7----7-7-----9------9-9------7----7-7--------------
E-7-----7-7--------------------------------------------------------

PART B
e--------------------------------------------------------------------------------------
B--------------------------------------------------------------------------------------
G--------------------------------------------------------------------------------------
D-------------------------------------------------------9-9-9-9-9-9-9-9-9-9-9-9--------
A-11-11-11--11--11-11-11--11--11-11--11-11--7-7-7-7-7-7-7-7-7-7-7-7--------------------
E--9---9---9---9---9---9---9---9---9---9---9---9---------------------------------------

This is the order:
A (6x)
B (2x)
A (6x)
B (2x)
A (6x)
B (2x)
A (2x)

The End.



Get this song at amazon.com      Ebay     Ringtones Ringtones  


Learn to play: Songwriting, Piano, Harmonica, Guitar

Related Misc Unsigned Bands Tabs

Anorexia Nervosa - Chtiment De La Rose tabs
Behind Our Minds - In This Room tabs
Brads One Man Band - First Crush tabs
Abc - 799 tabs
Calm Before The Breeze - Calm Before The Breeze tabs
Fresh Off The Boat - Fobulous tabs
Paradox - Killing The Contract Bass tabs
The Detours - Maria tabs
Gonzaw - Rainium tabs
Checkers And Stripes - My Own Anthem tabs
Vaginal Incest - Grindcore tabs
The Shadow Effect - Brendon K Loves His Pb And J tabs
Mmf - Loves Such A Drag tabs
Rooster - Staring At The Sun tabs
October Burns - Cats The Musical tabs
Thelema - The Absence tabs
A Day And A Deathwish - My Path tabs
Exit 181 - Spring Break tabs
Kelly James - Ment To Be Together tabs
Good Compared 2 Nothing - Qwerty tabs


Guitar Tabs









All tabs are property and copyright of their owners. All tabs provided for educational purposes only. Privacy Policy, DMCA