Misc Unsigned Bands

Rockabunny -goodbye Tabs



More from Misc Unsigned Bands

Misc Unsigned Bands Tabs
Misc Unsigned Bands Chords
Misc Unsigned Bands Bass

The farewell song of Rockabunny, performed 12th February 2007. This is a cover of the Def

Leppard track.





E-------0--------0---------------0---------0------------------------3---------------------

B---3-----3------------3-----3-----3----------------3---------------0---------------------

G-------------2-----2------------------2-------2--------------------0---------------------

D-------------------------------------------------------------------0---------------------

A-------------------------------------------------------------------2---------------------

E-------------------------------------------------------------------3---------------------





E----2------0-------------0---------------------------------------------------------------

B----3------3----------------3------------------------3------2----------------------------

G----2------2---------2--------2-------------------------4--------------------------------

D----0------0---------------------------------------4-------------------------------------

A-----------------------------------------------------------------------------------------

E-----------------------------------------------------------------------------------------



Added by tabs-database.com and our distinguished partners
Get this song at amazon.com      Ebay     Ringtones Ringtones  


Learn to play: Songwriting, Piano, Harmonica, Guitar

Related Misc Unsigned Bands Tabs

Plastic Fang - Sweet Poverty tabs
The Isle Of Wight - House Cat tabs
Neither One - Nada One tabs
Arrive Alive - I Have Two Shadows tabs
Hourglass- ' Hanging Here Myself' tabs
Big B - Addicted tabs
Social Impact - Say Something Interesting tabs
Michel Sardou - Les Lacs Du Connemara tabs
Recipe For A Hurricane - Fagget tabs
Vintage - Statement tabs
Factre - F5 (solo) tabs
Some Kind Of Hero - Bite Me tabs
Amitriptyline - Listen To The Silence tabs
My Jaded Hero - Apart Of Something Bass tabs
Fortissimo - One Of A Kind tabs
Hawthorne Heights - Silver Bullet tabs
Speed Of Dark - Gullible Intro tabs
A Twizdid Tale - A Large Crucifix On A Bloody Hill tabs
Brent Antenite - Do You Ever Wonder tabs
The Neutralized - Cop tabs


Guitar Tabs









All tabs are property and copyright of their owners. All tabs provided for educational purposes only. Privacy Policy, DMCA