Misc Unsigned Bands

Girugamesh - Owari To Mirai Tabs



More from Misc Unsigned Bands

Misc Unsigned Bands Tabs
Misc Unsigned Bands Chords
Misc Unsigned Bands Bass



Lead

Q E E H E E E E Q E E

D||------------------------||---------------------------||

A||-------10--10-----------||---------------------------||

F||---------------7--------||*-------------------------*||

C||--0---------------------||*--0--0--0--0--0----0--0--*||

G||--0---------------------||---0--0--0--0--0----0--0---||

C||--0---------------------||---0--0--0--0--0----0--0---||





Q Q Q Q E E E E E E Q E E E H E

----------------------|-----------------------------|--------------------------|

----------------------|-----------------------------|--------------------------|

----------------------|--7--14--15--14--10--8--7----|--7--14--15--17--------L--|

--1----1----3----3----|--5--12--13--12---8--6--5----|--5--12--13--15--------L--|

--1----1----3----3----|--5--12--13--12---8--6--5----|--5--12--13--15--------L--|

--1----1----3----3----|--5--12--13--12---8--6--5----|--5--12--13--15--------L--|





verse

W W Q Q Q Q

|--------------------|--------------------||----------------------|

|--------------------|--------------------||----------------------|

|*--7----------------|--3----------------*||----------------------|

|*--5----------------|--1----------------*||--1----1----3----3----|

|---5----------------|--1-----------------||--1----1----3----3----|

|---5----------------|--1-----------------||--1----1----3----3----|





refrain

H H H H H H

--------------------|---------------------|--------------------|

--------------------|---------------------|--------------------|

--3--------5--------|--7--------10--------|--3--------5--------|

--1--------3--------|--5---------8--------|--1--------3--------|

--1--------3--------|--5---------8--------|--1--------3--------|

--1--------3--------|--5---------8--------|--1--------3--------|





verse

H H W W

---------------------|-------------------||--------------------|

---------------------|-------------------||--------------------|

--7--------10--------|-------------------||*--7----------------|

--5---------8--------|--0----------------||*--5----------------|

--5---------8--------|--0----------------||---5----------------|

--5---------8--------|--0----------------||---5----------------|





W W W

--------------------||-------------------|-------------------|

--------------------||--6----------------|--1----------------|

--3----------------*||--7----------------|--3----------------|

--1----------------*||--5----------------|--1----------------|

--1-----------------||--5----------------|--1----------------|

--1-----------------||--5----------------|--1----------------|





refrain

H H H H H H

--------------------|---------------------|--------------------|

--------------------|---------------------|--------------------|

--3--------5--------|--7--------10--------|--3--------5--------|

--1--------3--------|--5---------8--------|--1--------3--------|

--1--------3--------|--5---------8--------|--1--------3--------|

--1--------3--------|--5---------8--------|--1--------3--------|





bridge

NH

H H H H E E E E Q E E

---------------------|----------------------|-----------------------------|

---------------------|----------------------|-----------------------------|

--7--------10--------|-----------Added by tabs-database.com and our distinguished partners
Get this song at amazon.com      Ebay     Ringtones Ringtones  


Learn to play: Songwriting, Piano, Harmonica, Guitar

Related Misc Unsigned Bands Tabs

The Searchlight Is Safety - A Light In The Calm tabs
Negative Charge- No Guts No Glory tabs
The Narwhals - Call The Ripper tabs
Universum - Faded tabs
Wet Monkey - Push Pop Coke tabs
Planet Sass - The Real Messiah tabs
Paranoid - Give Me An Answer tabs
Bladder Stone - Malaman Mo tabs
The Dions - Sam The Trolley Man tabs
Defused - Xm-s Entrance tabs
Classmate 67 - Hello To Me From You tabs
Riserevenge - Nothing In The Mirror tabs
Blinded Mind - While The Earth Remains tabs
Checkered Stripe - Call Mom tabs
Death Defiers - Emerald Pan tabs
Mindistortion - Jockstap tabs
Andy Gullahorn- If I Were tabs
The Lazy Jedi - The G-hard Joe tabs
Blades - Ouch tabs
Bl4nc - Back From Rehab Bass tabs


Guitar Tabs









All tabs are property and copyright of their owners. All tabs provided for educational purposes only. Privacy Policy, DMCA