Misc Unsigned Bands

Frantic State - Vindicate Tabs



More from Misc Unsigned Bands

Misc Unsigned Bands Tabs
Misc Unsigned Bands Chords
Misc Unsigned Bands Bass



--------------------------------------------------

VINDICATE BY FRANTIC STATE

--------------------------------------------------



Standard Tuning.



Frantic State can be found at myspace.com/franticstate . VINDICATE is a demo song, and

usually have it up for download.



KEY

~ - ring

= - strum

/ - slide

h - hammer

p - pull off

lts - listen to the song





INTRO (continous strumming, lts, you can figure it out)

E------------------------------------------------------------------------------------------------|

B------------------------------------------------------------------------------------------------|

G--6~----------6~--------6=================------------------6=================------------------|

D--6~--4~--2~--6~--4~----6=================4=================6=================4===============--|

A--4~--4~--2~--4~--4~----4=================4=================4=================4===============--|

e------2~--0~------2~----------------------2=================------------------2===============--|





END OF INTRO

E---------------------------------------------|

B---------------------------------------------|

G--6-6-6-6-6----------------------------------| 2X

D--6-6-6-6-6--7-7-7-7-7--9-9-9-9-9-----2---6--|

A--4-4-4-4-4--7-7-7-7-7--9-9-9-9-9-----2---6--|

e-------------5-5-5-5-5--7-7-7-7-7-----0---4--|





VERSE 1

E-----------------------------------|

B-----------------------------------|

G--6-6-6----------------------------|

D--6-6-6---7-7-7---9-9-9-----2---6--| 2X

A--4-4-4---7-7-7---7-7-7-----2---6--|

e----------5-5-5---7-7-7-----0---4--|



E-------------------------------------------|

B-------------------------------------------|

G-6-6-6-6-6---------------------------------|

D-6-6-6-6-6--7-7-7-7-7--9-9-9-9-9-----2---6-| 3X

A-4-4-4-4-4--7-7-7-7-7--9-9-9-9-9-----2---6-|

e------------5-5-5-5-5--7-7-7-7-7-----0---4-|





CHORUS 1

E-------------------------------------|

B-------------------------------------|

G-6=====/8~/9====13==/11===/13==/6====

D-6=====/8~/9====13==/11===/13==/6====

A-4=====/6~/7====11==/9====/11==/4====

e-------------------------------------





(extremely brief pause)





VERSE 2

E-----------------------------------|

B-----------------------------------|

G--6-6-6----------------------------|

D--6-6-6---7-7-7---9-9-9-----2---6--| 2X

A--4-4-4---7-7-7---7-7-7-----2---6--|

e----------5-5-5---7-7-7-----0---4--|



E-------------------------------------------|

B-------------------------------------------|

G-6-6-6-6-6---------------------------------|

D-6-6-6-6-6--7-7-7-7-7--9-9-9-9-9-----2---6-| 3X

A-4-4-4-4-4--7-7-7-7-7--9-9-9-9-9-----2---6-|

e------------5-5-5-5-5--7-7-7-7-7-----0---4-|



CHORUS 2

E-------------------------------------|

B-------------------------------------|

G-6=====/8~/9====13==/11===/13==/6====

D-6=====/8~/9====13==/11===/13==/6==== 2X

A-4=====/6~/7====11==/9====/11==/4====

e-------------------------------------





SOLO (verses are played on top of this. they are shortened to one or two riffs each. lts.)

E---------------

B-2~/4~/5~/9~/7~

G---------------|

D---------------| 3X

A---------------|

e---------------|



E-------------------------------------------------------------------------------|

B--2-0-2-0-2-5--2-0-2-0-2-5--2-0-2-0-2-5--2-0-2-0-2-5--2-0-2-0-2-5--2-0-2-0-2-5-|

G-------------------------------------------------------------------------------|

D-------------------------------------------------------------------------------|

A-------------------------------------------------------------------------------|

e-------------------------------------------------------------------------------|



E----------------------------------------------------------------------|

B---2-2-2-2-2-2-2/4-4/5-5-5-5-5-5-5/9-9-9-9-9/7-7-7-7-7/9/10/9/2-2-2-2-|

G----------------------------------------------------------------------|

D----------------------------------------------------------------------|

A----------------------------------------------------------------------|

e----------------------------------------------------------------------|





CHORUS

E-------------------------------------|

B-------------------------------------|

G-6=====/8~/9====13==/11===/13==/6====

D-6=====/8~/9====13==/11===/13==/6====

A-4=====/6~/7====11==/9====/11==/4====

e-------------------------------------



(riffs are played on top of this)

E----------------------------------------------------------------------|

B---2-2-2-2-2-2-2/4-4/5-5-5-5-5-5-5/9-9-9-9-9/7-7-7-7-7/9/10/9/2-2-2-2-|

G----------------------------------------------------------------------|

D----------------------------------------------------------------------|

A----------------------------------------------------------------------|

e----------------------------------------------------------------------|



(solo part is played beneath this)

E-------------------------------------|

B-------------------------------------|

G-6=====/8~/9====13==/11===/13==/6====

D-6=====/8~/9====13==/11===/13==/6====

A-4=====/6~/7====11==/9====/11==/4====

e-------------------------------------Added by tabs-database.com and our distinguished partners
Get this song at amazon.com      Ebay     Ringtones Ringtones  


Learn to play: Songwriting, Piano, Harmonica, Guitar

Related Misc Unsigned Bands Tabs

Goukisan-guitar Vs Piano Intro tabs
Prozacltd - Alone In My Prison tabs
The Avery - Sound Asleep tabs
Big And Rich - Save A Horse Ride A Cowboy Intro tabs
Redundancy Check - I Hate Polly Pocket Bass tabs
Sailor Heart - Lion Metaphor tabs
Xoxo Panda - Boys And Girls Good tabs
The Pits Of Hell - Reborn tabs
Ambulance Ltd - Heavy Lifting tabs
Split Second Kill - Outrage tabs
Gota Get Out Of Here - Dylan Berry tabs
Punish And Torment - In Hell I Bleed tabs
Half Awake - For Honor tabs
Dead Mess - Bleak tabs
The Envirocides - Dirt Man tabs
Betray The Living - The Wicked End tabs
Corporeal - All We Got Bass tabs
Bare Egil Band - Gunnar tabs
A Second To Last - Dying Against Your Will Bass tabs
The Cold Crystal - Kingdom tabs


Guitar Tabs









All tabs are property and copyright of their owners. All tabs provided for educational purposes only. Privacy Policy, DMCA