Misc Unsigned Bands

Fingersmoran - Rise Of The Zilart Bass Tabs



More from Misc Unsigned Bands

Misc Unsigned Bands Tabs
Misc Unsigned Bands Chords
Misc Unsigned Bands Bass

                              Rise of the Zilarte                               





Fingersmoran

Shawn







S Q S S Q S S E S W

G||--13-L-----L-11-L-----L-14-L--L-|--L----------------|

D||--11-L-----L-11-L-----L-11-L--L-|--L----------------|

A||--------------------------------|-------------------|

E||--------------------------------|-------------------|





S E E S S E E S S E S E E S S E S S E S S E

--11-L--L---L-14-L---L---L-13-L--L-|-----11--11-13-11--11-13-11--11-13-11--|

--11-L--L---L-11-L---L---L-11-L--L-|----------L---------L---------L--------|

-----------------------------------|---------------------------------------|

-----------------------------------|---------------------------------------|





S E E S S E E S S E S W

--13-L--L---L-11-L---L---L-14-L--L-|--L----------------|

--11-L--L---L-11-L---L---L-11-L--L-|--L----------------|

-----------------------------------|-------------------|

-----------------------------------|-------------------|





S E E S S E E S S E S W

--11-L--L---L-14-L---L---L-13------|-------------------|

--11-L--L---L-11-L---L---L-11------|-------------------|

-----------------------------------|-------------------|

-----------------------------------|-------------------|





S Q S S Q S S E S W

--13-L-----L-11-L-----L-14-L--L-|--L----------------|

--11-L-----L-11-L-----L-11-L--L-|--L----------------|

--------------------------------|-------------------|

--------------------------------|-------------------|





S E E S S E E S S E S E E S S E S S E S S E

--11-L--L---L-14-L---L---L-13-L--L-|-----11--11-13-11--11-13-11--11-13-11--|

--11-L--L---L-11-L---L---L-11-L--L-|----------L---------L---------L--------|

-----------------------------------|---------------------------------------|

-----------------------------------|---------------------------------------|





S E E S S E E S S E S W

--13-L--L---L-11-L---L---L-14-L--L-|--L----------------|

--11-L--L---L-11-L---L---L-11-L--L-|--L----------------|

-----------------------------------|-------------------|

-----------------------------------|-------------------|





S E E S S E E S S E S H. Q

--11-L--L---L-14-L---L---L-13------|----------------------|

--11-L--L---L-11-L---L---L-11------|----------------------|

-----------------------------------|---------------11S----|

-----------------------------------|----------------------|





E E E E Q E E E E E E Q Q E E E E Q E E

-------------------------|------------------------|-------------------------|

-------------------------|------------------------|-------------------------|

--4--4--4--4-------4--4--|--4--4-----4--5----2----|--4--4--4--4-------4--4--|

-------------------------|------------------------|-------------------------|





E E E E Q S S S S E E E E Q E E E E E E Q Q

---------------------------|-------------------------|------------------------|

---------------------------|--6--6--6--6-------6--6--|--6--6-----6--7----4----|

--4--4--4--5--7----5-7-5---|--4--4--4--4-------4--4--|--4--4-----4--5----2----|

---------------------------|-------------------------|------------------------|





E E E E Q E E E E E E Q Q W

-------------------------|------------------------|-------------------|

--6--6--6--6-------6--6--|--6--6--6--7--9----7----|--6----------------|

--4--4--4--4-------4--4--|--4--4--4--5--7----5----|--4----------------|

-------------------------|------------------------|-------------------|





E E E S E S S S E E E E E S E S S S E E

-------------------------6--|----------------------------|

-------------4--4-4-5-6-----|-------------4--4-4-5-4-----|

--4--4--7--7----------------|--4--4--7--7-------------7--|

----------------------------|----------------------------|





E E E S E S S S E E E E E S E S S S E E

-------------------------6--|----------------------------|

-------------4--4-4-5-6-----|-------------4--4-4-5-4-----|

--4--4--7--7----------------|--4--4--7--7-------------7--|

----------------------------|----------------------------|





E E E S E S S S E E E E E S E S S S E E

-------------------------6--|----------------------------|

-------------4--4-4-5-6-----|-------------4--4-4-5-4-----|

--4--4--7--7----------------|--4--4--7--7-------------7--|

----------------------------|----------------------------|





E E E S E S S S E E E E E S E S S S E E

-------------------------6--|----------------------------|

-------------4--4-4-5-6-----|-------------4--4-4-5-4-----|

--4--4--7--7----------------|--4--4--7--7-------------7--|

----------------------------|----------------------------|





E E E S E S S S E E E E E S E S S S E E

-------------------------6--|----------------------------|

-------------4--4-4-5-6-----|-------------4--4-4-5-4-----|

--4--4--7--7----------------|--4--4--7--7-------------7--|

----------------------------|----------------------------|





E E E S E S S S E E E E E S E S S S E E

-------------------------6--|----------------------------|

-------------4--4-4-5-6-----|-------------4--4-4-5-4-----|

--4--4--7--7----------------|--4--4--7--7-------------7--|

----------------------------|----------------------------|





E S S E S S Q E S S E E E S S E E E E

----------------------------|---------------------------|

--6--x-x-6--x-x-6-------6-6-|--6--5--4--6-6-6--5--4-----|

--4------4------4-------4-4-|--4--3--2--4-4-4--3--2-----|

----------------------------|---------------------------|





E S S E S S Q Q E E E E E E E E

--------------------------|----------------9--9---------|

--6--x-x-6--x-x-6---------|-----11--9--11--------11-----|

--4------4------4---------|-----------------------------|

--------------------------|--9--------------------------|





E S S E S S Q E S S E E E S S E E E E

----------------------------|---------------------------|

--6--x-x-6--x-x-6-------6-6-|--6--5--4--6-6-6--5--4-----|

--4------4------4-------4-4-|--4--3--2--4-4-4--3--2-----|

----------------------------|---------------------------|





E S S E S S Q Q W E E E S E S S S E E

--------------------------|-------------------|-------------------------6--|

--6--x-x-6--x-x-6---------|-------------------|-------------4--4-4-5-6-----|

--4------4------4---------|-------------------|--4--4--7--7----------------|

--------------------------|-------------------|----------------------------|





E E E S E S S S E E E E E S E S S S E E

----------------------------|-------------------------6--|

-------------4--4-4-5-4-----|-------------4--4-4-5-6-----|

--4--4--7--7-------------7--|--4--4--7--7----------------|

----------------------------|----------------------------|





E E E S E S S S E E E E E S E S S S E E

----------------------------|-------------------------6--|

-------------4--4-4-5-4-----|-------------4--4-4-5-6-----|

--4--4--7--7-------------7--|--4--4--7--7----------------|

----------------------------|----------------------------|





E E E S E S S S E E E E E S E S S S E E

----------------------------|-------------------------6--|

-------------4--4-4-5-4-----|-------------4--4-4-5-6-----|

--4--4--7--7-------------7--|--4--4--7--7----------------|

----------------------------|----------------------------|





E E E S E S S S E E E E E S E S S S E E

----------------------------|-------------------------6--|

-------------4--4-4-5-4-----|-------------4--4-4-5-6-----|

--4--4--7--7-------------7--|--4--4--7--7----------------|

----------------------------|----------------------------|





E E E S E S S S E E E E E S E S S S E E

----------------------------|-------------------------6--|

-------------4--4-4-5-4-----|-------------4--4-4-5-6-----|

--4--4--7--7-------------7--|--4--4--7--7----------------|

----------------------------|----------------------------|





E E E S E S S S E E E S S E S S Q E S S

----------------------------|----------------------------|

-------------4--4-4-5-4-----|--6--x-x-6--x-x-6-------6-6-|

--4--4--7--7-------------7--|--4------4------4-------4-4-|

----------------------------|----------------------------|





E E E S S E E E E E S S E S S Q Q

---------------------------|--------------------------|

--6--5--4--6-6-6--5--4-----|--6--x-x-6--x-x-6---------|

--4--3--2--4-4-4--3--2-----|--4------4------4---------|

---------------------------|--------------------------|





|--3--|

E E E E S S S E Q E S S E S S Q E S S

-----------------------------------|----------------------------|

--11--9--11--12--11-12-11-9--11----|--6--x-x-6--x-x-6-------6-6-|

-----------------------------------|--4------4------4-------4-4-|

-----------------------------------|----------------------------|





E E E S S E E E E E S S E S S Q Q W

---------------------------|--------------------------|---------------------|

--6--5--4--6-6-6--5--4-----|--6--x-x-6--x-x-6---------|--/18----------------|

--4--3--2--4-4-4--3--2-----|--4------4------4---------|--/16----------------|

---------------------------|--------------------------|---------------------|





S Q S S Q S S E S W

--13-L-----L-11-L-----L-14-L--L-|--L----------------|

--11-L-----L-11-L-----L-11-L--L-|--L----------------|

--------------------------------|-------------------|

--------------------------------|-------------------|





S E E S S E E S S E S E E S S E S S E S S E

--11-L--L---L-14-L---L---L-13-L--L-|-----11--11-13-11--11-13-11--11-13-11--|

--11-L--L---L-11-L---L---L-11-L--L-|----------L---------L---------L--------|

-----------------------------------|---------------------------------------|

-----------------------------------|---------------------------------------|





S Q S S Q S S E S W

--13-L-----L-11-L-----L-14-L--L-|--L----------------|

--11-L-----L-11-L-----L-11-L--L-|--L----------------|

--------------------------------|-------------------|

--------------------------------|-------------------|





S E E S S E E S S E S W

--11-L--L---L-14-L---L---L-13-L--L-|---L----------------|

--11-L--L---L-11-L---L---L-11-L--L-|--------------------|

-----------------------------------|--------------------|

-----------------------------------|--------------------|





S Q S S Q S S E S W

--13-L-----L-11-L-----L-14-L--L-|--L----------------|

--11-L-----L-11-L-----L-11-L--L-|--L----------------|

--------------------------------|-------------------|

--------------------------------|-------------------|





S E E S S E E S S E S E E S S E S S E S S E

--11-L--L---L-14-L---L---L-13-L--L-|-----11--11-13-11--11-13-11--11-13-11--|

--11-L--L---L-11-L---L---L-11-L--L-|----------L---------L---------L--------|

-----------------------------------|---------------------------------------|

-----------------------------------|---------------------------------------|





S E E S S E E S S E S W

--13-13--13---L-11-L---L---L-14-L--L-|--L----------------|

--11-11--11---L-11-L---L---L-11-L--L-|--L----------------|

-------------------------------------|-------------------|

-------------------------------------|-------------------|





S E E S S E E S S E S W

--11-L--L---L-14-L---L---L-13------|-------------------|

--11-L--L---L-11-L---L---L-11------|-------------------|

-----------------------------------|-------------------|

-----------------------------------|-------------------|





E E E E Q E E E E E E Q Q E E E E Q E E

-------------------------|------------------------|-------------------------|

-------------------------|------------------------|-------------------------|

--4--4--4--4-------4--4--|--4--4-----4--5----2----|--4--4--4--4-------4--4--|

-------------------------|------------------------|-------------------------|





E E E E Q Q E E E E Q E E E E E E Q Q

------------------------|-------------------------|------------------------|

------------------------|--6--6--6--6-------6--6--|--6--6-----6--7----4----|

--4--4--4--5--7----5----|--4--4--4--4-------4--4--|--4--4-----4--5----2----|

------------------------|-------------------------|------------------------|





E E E E Q E E E E E E Q Q E E E E Q E E

-------------------------|------------------------|-------------------------|

--6--6--6--6-------6--6--|--6--6--6--7--9----7----|--6--6--6--6-------6--6--|

--4--4--4--4-------4--4--|--4--4--4--5--7----5----|--4--4--4--4-------4--4--|

-------------------------|------------------------|-------------------------|





E E E E E E E E

--------------------------||

--6--6-----6--6--6--6-----||

--4--4-----4--4--4--4-----||

--------------------------||









Duration Legend

---------------

W - whole

H - half

Q - quarter

E - 8th

S - 16th

T - 32nd

X - 64th

. - note dotted

|-n-| - n-tuplets





Tablature Legend

----------------

L - tied note

x - dead note

g - grace note

(n) - ghost note

> - accentuded note

NH - natural harmonic

AH - artificial harmonic

TH - tapped harmonic

SH - semi harmonic

PH - pitch harmonic

h - hammer on

p - pull off

b - bend

br - bendRelease

pb - preBend

pbr - preBendRelease

brb - bendReleaseBend


/ - tremolo bar dip


- tremolo bar dive

-/n - tremolo bar Release up

/n\ - tremolo bar inverted dip

/n - tremolo bar return

-
- tremolo bar Release down

S - shift slide

s - legato slide

/ - slide into from below or out of upwards

\ - slide into from above or out of downwards

~ - vibrato

W - wide vibrato

tr - trill

TP - tremolo picking

T - tapping

S - slap

P - pop

Added by tabs-database.com and our distinguished partners
Get this song at amazon.com      Ebay     Ringtones Ringtones  


Learn to play: Songwriting, Piano, Harmonica, Guitar

Related Misc Unsigned Bands Tabs

The Inconvenient Fish Band - The Inconvenience Of Fish tabs
Living Daylights - Decide tabs
Fresh Off The Boat - Hate Is A Strong Word tabs
Evans - The Friend tabs
Random Acoustic Song tabs
7 Odds Against - Beast And The Harlot tabs
Q Mix - Smells Like Song 2 tabs
Irony Of The Situation - Suffocating tabs
Black Amendment - Silenced tabs
Vaginal Incest - Rectal Death tabs
Deluvian Slideshow - Julia tabs
7horse - Meth Lab Zoso Sticker tabs
D 316 - First Rock Concert tabs
Zygote - I Did It For You tabs
Deathrow Saints - Cerberus (intro) tabs
Big And Rich - Save A Horse Ride A Cowboy Intro tabs
Love And Cellophane - The Goodbye Song tabs
Time And Testimony - Insult tabs
Aureal - Suenos tabs
Parody Of Mishaps - Bahandi Bass tabs


Guitar Tabs









All tabs are property and copyright of their owners. All tabs provided for educational purposes only. Privacy Policy, DMCA