Led Zeppelin

I Can't Quit You Baby Bass Tabs



More from Led Zeppelin

Led Zeppelin Tabs
Led Zeppelin Chords
Led Zeppelin Bass
Led Zeppelin Lyrics




Artist: Led Zepplin
Song: I Can't Quit You Baby
Album: Led Zepplin I
Tabbed By: J_the_Freek



G:---------------------------------------------------------------|
D:------4-7------4-5-6-----7-----------------------------4-7-----|
A:--5--------------------------4-7---------4-7-----6-5-----------|
E:-----------------------------------0-5---------5---------------|

G:---------------------------------------------------------------|
D:------4-7------5-6-7-----------------------5-7-----------------|
A:--5-----------------------4-7----5-4-------------4-5-6---------|
E:----------------------5----------------5-----------------------|

G:---------------------------------------------------------------|
D:------6-9--------------4-7-------------7--7-8-------7--7-8-----|
A:--7------------7-6-5-------------9-8---------------------------|
E:---------------------------------------------------------------|

G:---------------------------------------------------------------|
D:-----------7---------4-7---10---7------------------------------|
A:------4-7----7-6-5------------------4-7------------------------|
E:--5------------------------------------------------------------|

G:-----------------------5-7-------------------------------------|
D:------7-5--------4-7--------4-5--6---7-5-----------------------|
A:-----------7-5---------------------------7---------------------|
E:--5------------------------------------------------------------|

G:---------------------------------------------------------------|
D:-----------5-6-7-----5-5-----------6--9------------------------|
A:------4-7----------7-----4-5-6-7----------7-6------------------|
E:--5------------------------------------------------------------|

G:---------------------------------------------------------------|
D:------4-7---4-5-6----7---7-8---7--8----------------------------|
A:--5------------------------------------------------------------|
E:---------------------------------------------------------------|

G:---------------------------------------------------------------|
D:------5-5---------------4-4-7--7-7-4--7-7-5-5-4-4--------------|
A:----------7-7---3-4-5-5---------------------------8-7----------|
E:--5-5---------5---------------------------------------5--------|

G:-------------------------------------5-6-7--------------5-6-7--|
D:------------7-7------------4-4--7-7-------------5-5-7-7--------|
A:------4-5-7-----4-5-6--5-5------------------5-5----------------|
E:--5-5----------------------------------------------------------|

G:----------------------------------------------7h9--7-----------|
D:--7-7-5-5---------4----/4---/4-----------------------9---------|
A:----------7-7-4-7---------7----7-7-4-5-6--7-7----------7-6-----|
E:--------------------5-5----------------------------------------|

G:-----5/7-5/7-5/7--5--5-7---------------------------------------|
D:-------------------------6--7--7-8--7-8---7--------------------|
A:--5------------------------------------------------------------|
E:---------------------------------------------------------------|

G:---------------------------------------------5/7--7------------|
D:---------7------7-7-7-7-7-7-7----------4-5-7--------5-6-7------|
A:--5---------------------------3-4--5-5-------------------------|
E:---------------------------------------------------------------|

G:------4/5-4/5-------------------9------------------------------|
D:---------------7-7--5-6-7---------7-7-----------4-5-6-7--------|
A:--5-5---------------------------------5-6-7-------------3-4-5-6|
E:---------------------------5-5--------------5-5----------------|

G:--------------7-8-9--------------------------------------------|
D:------6-7-8-9-------9------------------------------------------|
A:--7-7-----------------7--5-5---------------------------5/7-----|
E:------------------------------2-2-5-5-6-5--5-6-5--5-6----------|

G:---------------------------------------------------------------|
D:-----------------4-7---4-5--6-7--------5-----------------------|
A:------4--7--6-5-------------------4-7----7-4-7-----------------|
E:--5------------------------------------------------------------|

G:---------------2/5--------------5------------------------------|
D:---------5-5/7----------4---4------5/7--5-4--------------------|
A:-----4/7------------5------------------------------------------|
E:--5------------------------------------------------------------|

G:---------------------------------------------------------------|
D:------4-7---5--6-7----5-------------------4--------------------|
A:--5----------------------7-5------0/4--7-----5-6---------------|
E:--------------------5---------0-5------------------------------|

G:---------------------------------------------------------------|
D:-------6---9---------------------------------------------------|
A:--7------------7--7-5----------3-------------------------------|
E:-----------------------2---5-----------------------------------|

G:---------------------------------------------------------------|
D:---------------------------------------------------------------|
A:---------------------------------------------------------------|
E:--5--6--------5--6--------5--6---------------------------------|

That your lot!



Get this song at amazon.com      Ebay     Ringtones Ringtones  


Learn to play: Songwriting, Piano, Harmonica, Guitar
Also available at Muzikum: Led Zeppelin - I can't quit you baby lyrics

Related Led Zeppelin Bass Tabs

We're Gonna Groove bass
Black Dog bass
Rock N Roll bass
Ramble On bass
Poor Tom bass
Hots On For Nowhere bass
What Is And What Should Never Be bass
How Many More Times bass
South Bound Saurez bass
The Rain Song bass
What Is And Never Should Be bass
The Ocean-perfect bass
Baby Come On Home bass
Boogie With Stu bass
The Crunge bass
Black Dog Correct bass
In The Evening bass
Kashmir (the Right Way!) bass
Candy Store Rock bass
No Quater bass


Guitar Tabs









All tabs are property and copyright of their owners. All tabs provided for educational purposes only. Privacy Policy, DMCA