Led Zeppelin

Led Zeppelin - The Ocean Live (the Song Remains The Same Film) guitar tab

Intro

--------------------------------------------------------------

--------------------------------------------------------------

--------------------------------------------------------------

--5h7-5h7-5---------------5----7---7-----7--------------------repeat 4x

------------7----------5h7--5h7--4---5-7----------------------

--------------8s----------------------------------------------

^slide off

Verse

--------------------------------------------------------------

--------------------------------------------------------------

--------------------------------------------------------------

----7-7-7-7---5-5-5-5---2--0--2---5s7--7-7--------------------repeat 4x

----5-5-5-5---3-3-3-3---0--x--0---3s5--5-5--------------------

---------------------------3----------------------------------

--------------------------------------------------------------

--------------------------------------------------------------

--------------------------------------------------------------

--5h7-5h7-5---------------5----7---7-----7--------------------repeat 4x

------------7----------5h7--5h7--4---5-7----------------------

--------------8s----------------------------------------------

^slide off

--------------------------------------------------------------

--------------------------------------------------------------

--------------------------------------------------------------

----7-7-7-7---5-5-5-5---2--0--2---5s7--7-7--------------------repeat 4x

----5-5-5-5---3-3-3-3---0--x--0---3s5--5-5--------------------

---------------------------3----------------------------------

on this part after u play slide down from a high note

Solo (with wah wah)

-----------------------------------------8-------8--------7s14-7s12--------------------

------------------------------------8h10---10-10---10-10-------------------------------

--7b9-7b9--7p5---5-------------5--------------------------------------------------------

---------------7---7-7-----5h7---77-----------------------------------------------------

-----------------------5h7--------------------------------------------------------------

-------------------------------------------------------------------------------------

---------15-15-------15-15-----------5------------------------------------------------

---15b17-------15b17-------13------5---8p5-8-8-8-5------------------------------------

------------------------------14--------------------7b8p5-7-5-----------5-------------5-

--------------------------------------------------------------5-7-7-5-5---5h7-7-7-7-7----

--------------------------------------------------------------------------------------

--------------------------------------------------------------------------------------

--------------8-------8-------7s14--7s12---------15-15-------15--------------------

---------8h10---10-10---10-10--------------15b17-------15b17----13-----------------

-------------------------------------------------------------------14--------------

---7-7-----------------------------------------------------------------------------

-----------------------------------------------------------------------------------

-----------------------------------------------------------------------------------

----------------------------------------------------|----------------------------

--7-7-7-7---5-5-5-5----------5s7-7-7--13------------|----------------------------

--5-5-5-5---4-4-4-4---7-5-7--4s5-5-5--17slide down--|------------------------repeat 4x

----------------------5-4-5-------------------------|--7-----7-------------------

----------------------------------------------------|4---5-7---------------------

----------------------------------------------------|----------------------------

^play this part on 4th time

La la lalalala la la

La la lalalala la la

-------------------

-------------------

----2-4-5-2-2------

-------------------

-------------------

-------------------

La la lalalala la la

-------------

-------------

-4b5-4-2-2---

-------------

-------------

-------------

La la lalalala la la

--------------------------------------------------------------

--------------------------------------------------------------

--------------------------------------------------------------

----7-7-7-7---5-5-5-5---2--0--2---5s7--7-7--------------------repeat 4x

----5-5-5-5---3-3-3-3---0--x--0---3s5--5-5--------------------

---------------------------3----------------------------------

--------------------------------------------------------------

--------------------------------------------------------------

--------------------------------------------------------------

--5h7-5h7-5---------------5----7---7-----7--------------------repeat 4x

------------7----------5h7--5h7--4---5-7----------------------

--------------8s----------------------------------------------

^slide off

im still workin on the 2nd solo ill put it up when i get it

Get this song at:  amazon.com sheetmusicplus.com

Share your thoughts

0 Comments found