David Lee Murphy

David Lee Murphy - Dust On The Bottle solo guitar tab

Solo 1

E-------------14----14----14----14----14------

B----------16----16----16----16----16---------

G-------16------------------------------------

D-16^18---------------------------------------

A---------------------------------------------

E---------------------------------------------

E-14---14----14--------------------

B----16---16----16-14-12----12-----

G------------------------13--------

D----------------------------------

A----------------------------------

E----------------------------------

E------------------------------------------------------

B------------------------------------------------------

G-13---11---------------11^13-11-----------------------

D---------13-11-9-11^13----------13-11-9------9^11-----

A----------------------------------------9^11------9---

E------------------------------------------------------

E------------------|

B------------------|

G------------------|

D------------------|

A--------------9---|

E-11^9^7---7^9^----|

Years go by…(2:35)

E--------------------------------|

B--------------------------------|

G--------------------------------|

D-11^13-11--9^-------------------|

A-------------11-9---------------|

E------------------9^11-9—7^4-2--|

End Solo

E-----------------------------------------------

B-----------------------------------------------

G------------11----11----11----11----11----11---

D------9--13----13----13----13----13----13------

A-9^11------------------------------------------

E-----------------------------------------------

E------------------------

B------------------------

G------------------------

D-11^13-13-11-9-9----9---

A-----------------11-----

E------------------------

E-------------------------------------------------

B-------------------------------------------------

G----13-11----13-11-------------------------------

D-13-------13-------13-11-9-9^11-9----9^11-9------

A----------------------------------11-------------

E-------------------------------------------------

E----16----16----16----16--------14---------------|

B-16----16----16----16-----14^16----16^14---------|

G-----------------------------------------16------|

D-------------------------------------------------|

A-------------------------------------------------|

E-------------------------------------------------|

- Geetar

Get this song at:  amazon.com sheetmusicplus.com

Share your thoughts

0 Comments found