Buck Owens

Buck Owens - Tiger By The Tail solo guitar tab

this is real close to the way this was played by Buck Owens

lead player the late great Don Rich. please comment if Ive

left out anything.

E-------------------------------------3-------------------

B---------------------------------------------------------

G--------------------------------0-2----2-0-2--2-0-2------

D------------------2-0--2-2-2--2--------------------------

A-2-0-2---------------------------------------------------

E--------2br[3]-0-----------------------------------------

E----------------------3-----3b--0---------------------------

B-------------------2--3--5--3b--0--3--0---------------------

G--2--0--2-2------------------------2--0---------------------

D---------------------------------------------2--0--2-0------

A--------------1/2---------------------------------------2---

E------------------------------------------0-----------------

E------------------------------------------------------------

B------------------------------------------------------------

G----------------------------2--0-2--2--0--2--2--0--1--0--------------

D--2--0---------------------------------------------------------

A--------2--2--4------------------------------------------------

E-----------------2br[3]--0----------------------------------------

E--------------------------------------------------------------

B-----------------------------------------------------------

G-----------------------------------------------------------

D-------2--0--2--2-2---------------------------------------------

A--2/4----------------2br[3]--0---1/2--2-2--1/2--2-2---------------------------

E----------------------------------------------------------

E-----------------------------------------------------------

B----------------------------------------------------------

G----------------------------------------------------------

D--------------------2--0--------------------------1----------

A--2--4---------------------2--4-------------2--4----------------

E---------2br[3]--0---------------2br[3]--0------------------------------

Get this song at:  amazon.com sheetmusicplus.com

Share your thoughts

0 Comments found