Zao

Zao - Witchhunter guitar tab

Dropped C Tuning

Riff 1: Acoustic

E----------------------------------------------

B----------------------------------------------

G----------------------------------------------

D----------------------------------------------

A---0---0---0---0-----0----8---8---8---8-----8-

E-7---7---7---7----7-----7---7---7---7----7----

Bass:

G------------------------------------------------------

D---------------------------------3---3---3---3----3-5-

A-0-0-0-0-0-0-0-0-0-0-0-0-0-0-0-0---0---0---0---0------

E------------------------------------------------------

(Guitar 2 fades in with distortion)

Riff 2: Guitars 2 & 3 Electric with distortion

E-------------------------------------------------------

B-------------------------------------------------------

G-2--2--(x)-10--10-10-10-10-10--------------------------

D-2--2--(x)---------------------3--3--3-3/12--12--12-12-

A-0--0--(x)--8---8--8--8--8--8--3--3--3-3/12--12--12-12-

E-------(x)---------------------3--3--3-3/12--12--12-12-

(Riff 1 Again with Guitar 2)

Get this song at:  amazon.com sheetmusicplus.com

Share your thoughts

0 Comments found