Zao

Zao - Witch Hunter guitar tab

ZAO ----- Witch Hunter

Drop D tuning

E-----------------------------------------------------

B-----------------------------------------------------

G----------------------------------------------------- LISTEN TO THE SONG TO

D----------------------------------------------------- SEE HOW MANY TIMES IT

A--0-0-0-0-0--8-8-8-8-8------------------------------- IS REPEATED

D-7-7-7-7-7-77-7-7-7-7--------------------------------

VERSE:

E-----------------------------------------------------

B-----------------------------------------------------

G-----------10-10-10-10-------------7-7-7-7-----------

D-7-7-7-7---10-10-10-10--3-3-3-3----7-7-7-7-----------

A-7-7-7-7---8--8--8--8---3-3-3-3----5-5-5-5-----------

D-7-7-7-7----------------3-3-3-3----------------------

I just listened to the song and figured it out so if u have any comments jus email me at ridegree69@hotmail.com

Get this song at:  amazon.com

Share your thoughts

0 Comments found