Zao

Zao - Violet guitar tab

Song: Violet

Artist: Zao

Album: Where Blood and Fire Bring Rest

Transcribed by: BJ Woodward (sk8ing_woody@hotmail.com)

Part 1

E] -----------------------------------|

B] -----------------------------------|

G] -7-7-7-7-7-7-7-7-------------------|

D] -5-5-5-5-5-5-5-5--8-8-8-8-8-8-8-8--| (repeats 4X)

A] ------------------6-6-6-6-6-6-6-6--|

E] -----------------------------------|

Part 2

E] ----------------------------------|

B] ----------------------------------|

G] ----------------------------------|

D] --7-7-7-7-7-7-7-7-----------------| (repeats 4X)

A] -5-5-5-5-5-5-5-5--8-8-8-8-8-8-8-8-|

E] ------------------6-6-6-6-6-6-6-6-|

Play parts 1 and 2 together 2X.

The rest of the song is just the piano.

Get this song at:  amazon.com sheetmusicplus.com

Share your thoughts

0 Comments found