Zao

Zao - Trash Can Heads guitar tab

Dropped C Tuning

Intro is a Step effect

Verse: ("You think because you bought the record?")

E----------------0-0-0-0-------0-0-0-0-------0-0-0-0-|

B----------------0-0-0-0-------0-0-0-0-------0-0-0-0-|

G----------------0-0-0-0-------0-0-0-0-------0-0-0-0-|

D-(0-0-0-0-0-0-)---------(0-0-)-------(0-0-)---------|

A-(0-0-0-0-0-0-)---------(0-0-)-------(0-0-)---------|

E-(0-0-0-0-0-0-)---------(0-0-)-------(0-0-)---------|

Post-Verse: ("You can judge our lives?")

E-----------------------------------------|

B-----------------------------------------|

G-----------------------------------------|

D-(0-0-0---0-0---0-0---0-0-0---0-0---0-0-)|

A-(0-0-0---0-0---0-0---0-0-0---0-0---0-0-)|

E-(0-0-0---0-0---0-0---0-0-0---0-0---0-0-)|

(Verse)

(Post-Verse)

Riff 2: ("You foreign boys?")

E---------------|

B---------------|

G---------------|

D---------------|

A-3-----2-------|

E---5-3---5-3-0-|

Riff 3: ("With your polished cyber toys?")

E-------------|

B-------------|

G-------------|

D--10-9---5-3-|

A--10-9---5-3-|

E--10-9---5-3-|

(Riff 2)

(Verse)

(Post-Verse)

Bridge: 2x ("?working out for you?")

E----0-|

B----0-|

G----0-|

D-1--3-|

A-0--0-|

E-0--0-|

E-------------------------|

B-------------------------|

G-7/10-10/12-10/12--12/14-|

D-------------------------|

A-5/8---8/10--8/10--10/12-|

E-------------------------|

("It's funny how you justify?")

E--------------------|

B--------------------|

G--------------------|

D-0-3--3-5--3-5--5-7-|

A-0-3--3-5--3-5--5-7-|

E-0-3--3-5--3-5--5-7-|

End: ("We wrote this song for you?")

E----------------------------------------|

B----------------------------------------|

G----------------------------------------|

D-(0-0-0-0-)-3-3-3-3--(0-0-0-0-)-1-1-1-1-|

A-(0-0-0-0-)-0-0-0-0--(0-0-0-0-)-0-0-0-0-|

Get this song at:  amazon.com

Share your thoughts

0 Comments found