Zao

Zao - Tool To Scream guitar tab

Dropped C Tuning

Intro: Delay Effect on

E-------------------------|

B-------------------------|

G-12----10----9----10-|

D------------------------|

A-10-----8----7-----8-|

E--0-----0----0-----0--|

Bass:

G-----------|--|-------------|

D-----------|--|-------------|

A---5------|3x|-/8--7--5-|

E-0---(0)--|--|-------(0)---|

Verse:

E----------------------------------------------------------------------------------|

B----------------------------------------------------------------------------------|

G-7-7-7-7-10-10-10-10-7-7-7-7-10-10-10-10-7-6-6-6-6-9-9-9-9-6-6-6-6-|

D----------------------------------------------------------------------------------|

A-5-5-5-5--8--8--8--8-5-5-5-5--8--8--8--8-5-4-4-4-4-7-7-7-7-4-4-4-4---|

E----------------------------------------------------------------------------------|

E--------------|

B--------------|

G-9-9-9-9-6-|

D--------------|

A-7-7-7-7-4-|

E---------------|

Variation:

Guitar 2:

E--------------------------------------------------

B--------------------------------------------------

G-10--12--14-12-10-6-6-6-6-9-9-9-9-6-6-6-6-9-9-9-9-

D--------------------------------------------------

A--8--10--12-10--8-4-4-4-4-7-7-7-7-4-4-4-4-7-7-7-7-

E--------------------------------------------------

Pre-Chorus:

Guitar 1: Repeat

E-0--0--0--0-|

B-6--6--6--6-|

G--------------|

Guitar 2:

E--------------|

B--------------|

G--------------|

D--------------|

A--------------|

E-0-------0-0-|

Bass: Slide to 12th and back down to the C again

G--------------|

D--------------|

A--------------|

E-0----/12

Get this song at:  amazon.com

Share your thoughts

0 Comments found