Zao

Zao - The Rising End (the First Prophecy) guitar tab

ZAO - The Funeral of God

The Rising End (The First Prophecy)

dropped C tunning

0:00

D||------------------------------------------------------------||

A||------------------------------------------------------------||

F||------------------------------------------------------------|| x 12

C||------------------------------------------------------------||

G||------------------------------------------------------------||

C||--10-0-7-0-6-0-3-0-5-0-6-0-5-0-3-0--------------------------||

0:25

D||------------------------------------------------------------||

A||------------------------------------------------------------||

F||------------------------------------------------------------|| x 10

C||--7-6-3-6-7-6-3---------------------------------------------||

G||--7-6-3-6-7-6-3---------------------------------------------||

C||--7-6-3-6-7-6-3---------------------------------------------||

0:45

D||------------------------------------------------------------||

A||------------------------------------------------------------||

F||------------------------------------------------------------|| x 8

C||------------------------------------------------------------||

G||------------------------------------------------------------||

C||--10-0-7-0-6-0-3-0-5-0-6-0-5-0-3-0--------------------------||

1:00

D||------------------------------------------------------------||

A||------------------------------------------------------------||

F||------------------------------------------------------------|| x 7

C||--7-6-3-6-7-6-3---------------------------------------------||

G||--7-6-3-6-7-6-3---------------------------------------------||

C||--7-6-3-6-7-6-3---------------------------------------------||

1:15

D||------------------------------------------------------------||

A||------------------------------------------------------------||

F||------------------------------------------------------------||

C||--6-7-6-3-0-------------------------------------------------||

G||--6-7-6-3-0-------------------------------------------------||

C||--6-7-6-3-0-------------------------------------------------||

1: 18

D||------------------------------------------------------------||

A||------------------------------------------------------------||

F||------------------------------------------------------------|| x 4

C||--0-0--0-0--0--7-7-7-7-6-6--3-3-3-3-2-2--0-2-3-2-0----------||

G||--0-0--0-0--0--5-5-5-5-4-4--3-3-3-3-2-2--0-2-3-2-0----------||

C||--0-0--0-0--0--0-0-0-0-0-0--3-3-3-3-2-2--0-2-3-2-0----------||

1: 38 / 1:48

D||------------------------------------------------------------||

A||------------------------------------------------------------||

F||------------------------------------------------------------||

C||--0-0-(6~)-0-0--0-------------------------------------------||

G||--0-0------0-0--0-------------------------------------------||

C||--0-0------0-0--0-------------------------------------------||

1:58

D||------------------------------------------------------------||

A||------------------------------------------------------------||

F||------------------------------------------------------------||

C||--0-0--7-7---0-0--0-0--7-7----------------------------------||

G||--0-0--5-5---0-0--0-0--5-5----------------------------------||

C||--0-0--------0-0--0-0---------------------------------------||

2:04

D||------------------------------------------------------------||

A||------------------------------------------------------------||

F||------------------------------------------------------------|| x 18

C||--0-0--7-7--------------------------------------------------||

G||--0-0--5-5--------------------------------------------------||

C||--0-0-------------------------------------------------------||

2:44

D||------------------------------------------------------------||

A||------------------------------------------------------------||

F||------------------------------------------------------------|| x 4

C||--0-0--0-0--0--7-7-7-7-6-6--3-3-3-3-2-2--0-2-3-2-0----------||

G||--0-0--0-0--0--5-5-5-5-4-4--3-3-3-3-2-2--0-2-3-2-0----------||

C||--0-0--0-0--0--0-0-0-0-0-0--3-3-3-3-2-2--0-2-3-2-0----------||

3: 05 / 3:15

D||------------------------------------------------------------||

A||------------------------------------------------------------||

F||------------------------------------------------------------||

C||--0-0-(6~)-0-0--0-------------------------------------------||

G||--0-0------0-0--0-------------------------------------------||

C||--0-0------0-0--0-------------------------------------------||

Get this song at:  amazon.com

Share your thoughts

0 Comments found