Zao

Zao - The Rising End guitar tab

Zao - The rising end. off the new album The Funeral Of God

i like to play in my own tuning which is: CGCGBE, because when i downtune...well i dont

like to. so here's the song

INTRO

E|-

B|-

G|-

C|-

G|-

C|-10-0-7-7-6-0-3-0-5-0-6-0-5-0-3-0 Repeat four times

VERSE

C|-10-0-7-7-6-0-3-0-5-0-6-0-5-0-3-0

G|-10-0-7-7-6-0-3-0-5-0-6-0-5-0-3-0

C|-10-0-7-7-6-0-3-0-5-0-6-0-5-0-3-0 Reapeat eight times

CHORUS

C-xx-7-6-3-6-7-6-3

G-xx-7-6-3-6-7-6-3

C-xx-7-6-3-6-7-6-3 repeat ten times

VERSE

CHORUS

i dont know what to call this part

G-----------------888877--333356

C-0~-00-(6)-00--0-777766--333322--0-2-3-2-0

G-0~-00-----00--0-555544--333322--0-2-3-2-0

C-0~-00-----00--0---------333322--0-2-3-2-0 Reapeat four times

PM PM ---PM----

C-0-0---0--0---0-0--0-0

G-0-0---0--0---0-0--0-0

C-0-0---0--0---0-0--0-0 (i think it's a seven and nine on the high G string but i'm not

sure about this part)

and then do more of that part that i dont know what to call it

paul.

Get this song at:  amazon.com sheetmusicplus.com

Share your thoughts

0 Comments found