Zao

Zao - The Race Of Standing Still guitar tab

Guitar Tab by ynrohyrev (cursedb4u@hotmail.com)

Tuning- CGCFAD

pm= palm mute

x= mute string

t= tremolo pick

Intro (clean)

|---------------|--------------------|

|---------------|--------------------|

|-3------10-----|-3-----10----9---10-|

|-x------x------|-x------x----x----x-|

|-1------8------|-1------8----7----8-|

|-0------0------|-0------0----0----0-|

G#5/C D#5/C D5/C

|----------------|-------------------|

|----------------|-------------------|

|-15----10----9--|-15-----10----9----|

|-x------x----x--|--x------x----x----|

|-13-----8----7--|-13------8----7----|

|-0------0----0--|--0------0----0----|

G#5/C

For the Chorus just play the Intro w/distortion

the chords are quiet so emphasize the open C

Pre-Chorus (clean)

|------------|-------------|-------27t-|

|------------|-------------|-------27t-|

|-3-----10---|--3-----10---|-----------|

|-x------x---|--x------x---|-----------|

|-1------8---|--1------8---|-00000-----|

|-0------0---|--0------0---|-00000-----|

pm--- ^lead guitar trem picks past the

frets, i think he uses a phaser

Play the Chorus again

the Interlude is just a lot of open C5's, followed

by a clean part that uses the same chords as the

Intro (you can figure it out)

Outro (distortion)

lead guitar jerks off over this again

|--------------------------|

|--------------------------|

|-----------15-14---10--9--|

|------------x--x----x--x--|

|-00--00--0-13-12----8--7--|

|-00--00--0----------------|

end on C5

Get this song at:  amazon.com sheetmusicplus.com

Share your thoughts

0 Comments found