Zao

Zao - The Dreams That Don Come True guitar tab

Intro: Clean

D|---------------------------------------------------|

A|---------------------------------------------------|

F|--------2--------2---------2---------2--------2----|

C|----------3--------3---------3---------3--------3--|

G|---------------------0-0-0------0-0-0--------------|

C|-0-0-0------3-3-3-------------------------0-0-0----|

D|----------------------------------------------|

A|----------------------------------------------|

F|--------2--------------10--10--10--10---9--9--|

C|----------3------------7---7---7---7----7--7--|

G|----------------0-0-0--8---8---8---8----8--8--|

C|--3-3-3---------------------------------------|

Distortion:

D|-----------------------------------------------|

A|-----------------------------------------------|

F|-----------------------------------------------|

C|--0-0-0---5-5-5-5--0---------------------------|

G|--0-0-0---5-5-5-5--0--8--8--8--8--8--10-10-12--|

C|--0-0-0---5-5-5-5--0---------------------------|

D|---------------------------------------|

A|---------------------------------------|

F|---------------------------------------|

C|--5-5-5-5--0---------------------------|

G|--5-5-5-5--0--8--8--8--8--8--8--7-7-7--|

C|--5-5-5-5--0---------------------------|

D|---------------------------------------|

A|---------------------------------------|

F|---------------------------------------|

C|-0*-0*-0*-0*-3---0*-0*-0*-0*-3----5----|

G|-0*-0*-0*-0*-3---0*-0*-0*-0*-3----5----|

C|-0*-0*-0*-0*-3---0*-0*-0*-0*-3----5----|

D|-----------------------------------------------------------------|

A|-----------------------------------------------------------------|

F|-----------------------------------------------------------------|

C|--3--3--2--3--2--0*-0*-0*-0*-3--0*-0*-0*-0*-3--0*-0*-0*-0*-3--0--|

G|--3--3--2--3--2--0*-0*-0*-0*-3--0*-0*-0*-0*-3--0*-0*-0*-0*-3--0--|

C|--3--3--2--3--2--0*-0*-0*-0*-3--0*-0*-0*-0*-3--0*-0*-0*-0*-3--0--|

Clean:

D|-----------------------------------------------------------------|

A|-----------------------------------------------------------------|

F|---10-10-10-10-10-10-10-10-10-10---9--9--9--9--9--9--9--9--9--9--|

C|----7--7--7--7--7--7--7--7--7--7---7--7--7--7--7--7--7--7--7--7--|

G|----8--8--8--8--8--8--8--8--8--8---8--8--8--8--8--8--8--8--8--8--|

C|-----------------------------------------------------------------|

D|-----------------------------------------------------------------|

A|-----------------------------------0--0--0--0--0--0--0--0--0--0--|

F|---10-10-10-10-10-10-10-10-10-10---9--9--9--9--9--9--9--9--9--9--|

C|----7--7--7--7--7--7--7--7--7--7---7--7--7--7--7--7--7--7--7--7--|

G|----8--8--8--8--8--8--8--8--8--8---8--8--8--8--8--8--8--8--8--8--|

C|-----------------------------------------------------------------|

D|-------------------------|

A|-------------------------|

F|------------------5------|

C|--0---3---2---3---5---0--|

G|--0---3---2---3---3---0--|

C|--0---3---2---3-------0--|

End(Clean)

D|-----------------------------------------------------------------|

A|-----------------------------------------------------------------|

F|---10-10-10-10-10-10-10-10-10-10---9--9--9--9--9--9--9--9--9--9--|

C|----7--7--7--7--7--7--7--7--7--7---7--7--7--7--7--7--7--7--7--7--|

G|----8--8--8--8--8--8--8--8--8--8---8--8--8--8--8--8--8--8--8--8--|

C|-----------------------------------------------------------------|

KEY: h = hammer

/ = slide

v = vibrate string

^ = bend

* = palm muting

Get this song at:  amazon.com

Share your thoughts

0 Comments found