Zao

Zao - The Buzzing guitar tab

Intro & Verse

E---------------|---------------|

B---------------|---------------|

G---------------|---------------|

D-320-202-------|--------3-2----|

A-320-202--(x4)-|-5-4-----2-1---|

D-320-202-------|--6-5----------|

E----------------|----------------------------|

B----------------|--------------210----320----|

G----------------|320----210----210(x2)320(x2)|

D-320-202-------_|320(x2)210(x2)--------------|

A-320-202--(x4)--|----------------------------|

D-320-202--------|----------------------------|

Chorus

E-------|--------------|------------------------------|

B-------|--------------|------------------------------|

G-------|--------------|------------------------------|

D-0-3-2-|--------------|------------------------------|

A-0-3-2-|-X-1-1-XX-1-1-|----0h2p0------0h2p0----------|

D-0-3-2-|-X-2-2-XX-2-2-|-2h5-----5--2h5-----5---------|

Bridge

E---------------------------------|----------|--------|

B---------------------------------|----------|--------|

G---------------------------------|----------|--------|

D---------------------------------|----------|--------|

A----0h2p0------0h2p0------0h2p0--|-4p0-5p0--|-X-1-1--|

D-2h5-----5--2h5-----5--2h5-----5-|----5---5-|-X-2-2--|

Get this song at:  amazon.com sheetmusicplus.com

Share your thoughts

0 Comments found