Zao

Zao - Skin Like Winter guitar tab

Zao - Skin Like Winter

Drop C Tuning

Intro

Q=159

N.C.

4/4

Gtrs I, II

E E E E E E E E E E E E E E E E E E E E E E E E E E E E E E E E

|-----------------|-----------------|-----------------|-----------------|

|-----------------|-----------------|-----------------|-----------------|

|-----------------|-----------------|-----------------|-----------------|

|-----------------|-----------------|-----------------|-----------------|

|-----------------|-----------------|-----------------|-----------------|

|-1-4-4-1-4-1-1-4-|-1-4-4-1-4-1-1-4-|-1-4-4-1-4-1-1-4-|-1-4-4-1-4-1-1-1-|

D5 D5 C5 F5 D5 D5F5 D5F5D5 F5

2/2 4/4

Gtr I

W H Q Q E E E E E E E E

||-------------|--------------|-----------------|

||o------------|--------------|-----------------|

||-------------|--------------|-----------------|

||--7----------|-10-----3--0--|-0-3-3-0-3-0-0-3-|

||o-0----------|-10-----3--0--|-0-3-3-0-3-0-0-3-|

||--0----------|-10-----3--0--|-0-3-3-0-3-0-0-3-|

|

| Gtr II

| H. Q Q Q Q Q E E E E E E E E

||-------------|--------------|-----------------|

||o------------|--------------|-----------------|

||-------------|--------------|-----------------|

||--0----------|-10-----3--0--|-----------------|

||o-0-------0--|-10-----3--0--|-0-3-3-0-3-0-0-3-|

||--0-------0--|-10--0--3--0--|-0-3-3-0-3-0-0-3-|

D5F5 D5F5D5 F5 D5F5 D5F5D5 F5 D5F5 D5F5D5

E E E E E E E E E E E E E E E E E E E E E E E E

|-----------------|-----------------|-------------------||

|-----------------|-----------------|------------------o||

|-----------------|-----------------|-------------------||

|-0-3-3-0-3-0-0-3-|-0-3-3-0-3-0-0-3-|-0-3-3-0-3-0-0-0---||

|-0-3-3-0-3-0-0-3-|-0-3-3-0-3-0-0-3-|-0-3-3-0-3-0-0-0--o||

|-0-3-3-0-3-0-0-3-|-0-3-3-0-3-0-0-3-|-0-3-3-0-3-0-0-0---||

|

| E E E E E E E E E E E E E E E E E E E E E E E E

|-----------------|-----------------|-------------------||

|-----------------|-----------------|------------------o||

|-----------------|-----------------|-------------------||

|-----------------|-----------------|-------------------||

|-0-3-3-0-3-0-0-3-|-0-3-3-0-3-0-0-3-|-0-3-3-0-3-0-0-0--o||

|-0-3-3-0-3-0-0-3-|-0-3-3-0-3-0-0-3-|-0-3-3-0-3-0-0-0---||

D5 D5 C5 F5 D5

2/2 2/4

W H Q Q +H

|------------|--------------|--------||

|------------|--------------|--------||

|------------|--------------|--------||

|-7----------|-10-----3--0--|-(0)----||

|-0----------|-10-----3--0--|-(0)----||

|-0----------|-10-----3--0--|-(0)----||

|

| H. Q Q Q Q Q +H

|------------|--------------|--------||

|------------|--------------|--------||

|------------|--------------|--------||

|-0----------|-10-----3--0--|-(0)----||

|-0-------0--|-10-----3--0--|-(0)----||

|-0-------0--|-10--0--3--0--|-(0)----||

Pre-Verse

N.C. D5

4/4

~ ~ ~ ~

E E Q H E E Q H E E Q H E E Q H

|---------------|---------------|---------------|---------------------|

|---------------|---------------|---------------|---------------------|

|---------------|---------------|---------------|---------------------|

|---------------|---------------|---------------|---------------------|

|--2s=1s7--6----|--2s=1s7--6----|--2s=1s7--6----|--2s=1s7--6----------|

|---------------|---------------|---------------|---------------------|

|

| PM----|

| +W +W +W +H. S S S S

|---------------|---------------|---------------|---------------------|

|---------------|---------------|---------------|---------------------|

|---------------|---------------|---------------|---------------------|

|-(0)-----------|-(0)-----------|-(0)-----------|-(0)-----------------|

|-(0)-----------|-(0)-----------|-(0)-----------|-(0)---------0-0-0-0-|

|-(0)-----------|-(0)-----------|-(0)-----------|-(0)---------0-0-0-0-|

D5

~ ~

E E Q H E E Q H

||---------------------|--------------------|

||o--------------------|--------------------|

||---------------------|--------------------|

||---------------------|--------------------|

||o-2s1s7--6-----------|-2s1s7--6-----------|

||---------------------|--------------------|

|

| PM PM--------| PM-------

| E H E S S S S E H E S S S S

||---------------------|--------------------|

||o--------------------|--------------------|

||---------------------|--------------------|

||---------------------|--------------------|

||o-0----------0-0-0-0-|-0----------0-0-0-0-|

||--0----------0-0-0-0-|-0----------0-0-0-0-|

1.

~ ~

E E Q H E E Q H

|--------------------|--------------------------||

|--------------------|-------------------------o||

|--------------------|--------------------------||

|--------------------|--------------------------||

|-2s1s7--6-----------|-2s1s7-------6-----------o||

|--------------------|--------------------------||

|

|-| PM--------| PM------| PM----|

| E H E S S S S E E S S S S E E S S S S

|--------------------|--------------------------||

|--------------------|-------------------------o||

|--------------------|--------------------------||

|--------------------|--------------------------||

|-0----------0-0-0-0-|-0---0-0-0-0-0---0-0-0-0-o||

|-0----------0-0-0-0-|-0---0-0-0-0-0---0-0-0-0--||

Verse

2.

D5 D5 N.C.

3/4 4/4

PM--------|

E E Q Q E E E E Q E. S

|------------||--------------Added by tabs-database.com and our distinguished partners

Get this song at:  amazon.com

Share your thoughts

0 Comments found